Cifra Club

Aprenda

Micro Cuts

Muse

Cifra: Principal (violão e guitarra)
Já pensou em usar uma coleção de roupas do Cifra Club? Responda as perguntas abaixo e nos ajude nessa missão! →
tom: A
Intro:
     Dm
E|--------------10----------|--------------10----------|--------------10----------|--------------10----------|
B|--------10-------10----10-|--------10-------10----10-|--------10-------10----10-|--------10-------10----10-|
G|-----10----10-------10----|-----10----10-------10----|-----10----10-------10----|-----10----10-------10----|
D|--12----------------------|--12----------------------|--12----------------------|--12----------------------|
A|--------------------------|--------------------------|--------------------------|--------------------------|
D|--------------------------|--------------------------|--------------------------|--------------------------|
                                        Gm                                 Dm             D
E|------------------10--------------|------------------10--------------|--------------10-------------10--|
B|----------10----------10------10--|----------11----------11------11--|----------10-------------10------|
G|------10------10----------10------|------12------12----------12------|------10-------------11----------|
D|--12------------------------------|--12------------------------------|--12-------------12--------------|
A|----------------------------------|----------------------------------|---------------------------------|
D|----------------------------------|----------------------------------|---------------------------------|
     Gm                                                                            Dm
E|--------------10----------10----------|--------------10----------10----------|--------------10----------10-----------|
B|--------11-------11----11----11----11-|--------11-------11----11----11----11-|--------10-------10----10----10----10--|
G|-----12----12-------12----------12----|-----12----12-------12----------12----|-----10----10-------10----------10-----|
D|--12----------------------------------|--12----------------------------------|--12-----------------------------------|
A|--------------------------------------|--------------------------------------|---------------------------------------|
D|--------------------------------------|--------------------------------------|---------------------------------------|
     A7                                      Dm
E|--------------12----------12-----------|--------------10----------10-----------|-----------10----------10----------10--||
B|--------10-------10----10----10----10--|--------10-------10----10----10----10--|--------10----------10----------10-----||
G|-----12----12-------12----------12-----|-----10----10-------10----------10-----|-----10----------10----------10--------||
D|--11-----------------------------------|--12-----------------------------------|--12----------12----------12-----------||
A|---------------------------------------|---------------------------------------|---------------------------------------||
D|---------------------------------------|---------------------------------------|---------------------------------------||
     Dm                                 Gm
E|------------------10--------------|------------------10--------------|
B|o---------10----------10------10--|----------11----------11------11--|
G|------10------10----------10------|------12------12----------12------|
D|--12------------------------------|--12------------------------------|
A|o---------------------------------|----------------------------------|
D|----------------------------------|----------------------------------|
   Hands                               are
   Whim               -                pers

      Dm              D                  Gm
E|--------------10--------------10--|--------------10----------10-----------|--------------10----------10-----------|
B|----------10--------------10------|--------11-------11----11----11----11--|--------11-------11----11----11----11--|
G|------10--------------11----------|-----12----12-------12----------12-----|-----12----12-------12----------12-----|
D|--12--------------12--------------|--12-----------------------------------|--12-----------------------------------|
A|----------------------------------|---------------------------------------|---------------------------------------|
E|----------------------------------|---------------------------------------|---------------------------------------|
   red             with__________________   your   blame,_________________________
  some      -      one___________________     I    should    have    loved
     Dm                                      A7                                      Dm
E|--------------10----------10-----------|--------------12----------12-----------|--------------10----------10-----------|
B|--------10-------10----10----10----10--|--------10-------10----10----10----10--|--------10-------10----10----10----10--|
G|-----10----10-------10----------10-----|-----12----12-------12----------12-----|-----10----10-------10----------10-----|
D|--12-----------------------------------|--11-----------------------------------|--12-----------------------------------|
A|---------------------------------------|---------------------------------------|---------------------------------------|
D|---------------------------------------|---------------------------------------|---------------------------------------|
   meg - a - phone_______                  screaming_________________     my       name._________________________________
   souls                                   weeping___________________     a   -   bove.__________________________________
                                                       N.C.
E|--------------10--------------10--------------10--|--x--x----x--x----x--x------|
B|----------10--------------10--------------10------|--x--x----x--x----x--x------|
G|------10--------------10--------------10----------|--x--x----x--x----x--x------|
D|--12--------------12--------------12--------------|----------------------------|
A|--------------------------------------------------|----------------------------|
D|--------------------------------------------------|----------------------------|
  ___                                                                  I've
  ___}

Refrão:
      Gm                       D7(9-)                       Gm
E|--6--6--6--6--6--6--6--6--|--------------------------|--6--6--6--6--6--6--6--6--|
B|--8--8--8--8--8--8--8--8--|--------------------------|--8--8--8--8--8--8--8--8--|
G|--7--7--7--7--7--7--7--7--|--------------------------|--7--7--7--7--7--7--7--7--|
D|--5--5--5--5--5--5--5--5--|--4--4--4--4--4--4--4--4--|--5--5--5--5--5--5--5--5--|
A|--5--5--5--5--5--5--5--5--|--0--0--0--0--0--0--0--0--|--5--5--5--5--5--5--5--5--|
D|--5--5--5--5--5--5--5--5--|--0--0--0--0--0--0--0--0--|--5--5--5--5--5--5--5--5--|
    seen___________________________________________________________________________
                                                           D7(9-)
E|--6--6--6--6--6--6--6--6--|--6--6--6--6--6--6--6--6--|--------------------------|
B|--8--8--8--8--8--8--8--8--|--8--8--8--8--8--8--8--8--|--------------------------|
G|--7--7--7--7--7--7--7--7--|--7--7--7--7--7--7--7--7--|--------------------------|
D|--5--5--5--5--5--5--5--5--|--5--5--5--5--5--5--5--5--|--4--4--4--4--4--4--4--4--|
A|--5--5--5--5--5--5--5--5--|--5--5--5--5--5--5--5--5--|--0--0--0--0--0--0--0--0--|
D|--5--5--5--5--5--5--5--5--|--5--5--5--5--5--5--5--5--|--0--0--0--0--0--0--0--0--|
  ___            what you're  do             -            ing_______________  to
     Gm
E|--6--6--6--6--6--6--6--6--|--6--6--6--6--6--6--6--6--|--6--6--6--6--6--6--6--6--|
B|--8--8--8--8--8--8--8--8--|--8--8--8--8--8--8--8--8--|--8--8--8--8--8--8--8--8--|
G|--7--7--7--7--7--7--7--7--|--7--7--7--7--7--7--7--7--|--7--7--7--7--7--7--7--7--|
D|--5--5--5--5--5--5--5--5--|--5--5--5--5--5--5--5--5--|--5--5--5--5--5--5--5--5--|
A|--5--5--5--5--5--5--5--5--|--5--5--5--5--5--5--5--5--|--5--5--5--5--5--5--5--5--|
D|--5--5--5--5--5--5--5--5--|--5--5--5--5--5--5--5--5--|--5--5--5--5--5--5--5--5--|
   me.__________________________                De   -   stroy          -
     D7(9-)                                E7M(9)                               G#dim
E|----------------------------------|--10--10--10--10--10--10--10--10--|----------------------------------|
B|--13--13--13--13--13--13--13--13--|---9---9---9---9---9---9---9---9--|--12--12--12--12--12--12--12--12--|
G|--11--11--11--11--11--11--11--11--|--12--12--12--12--12--12--12--12--|--10--10--10--10--10--10--10--10--|
D|--12--12--12--12--12--12--12--12--|--12--12--12--12--12--12--12--12--|--12--12--12--12--12--12--12--12--|
A|--12--12--12--12--12--12--12--12--|--10--10--10--10--10--10--10--10--|--11--11--11--11--11--11--11--11--|
D|---0---0---0---0---0---0---0---0--|----------------------------------|----------------------------------|
  - ing                               pup  -  pet     strings______________                   to     our
     A7sus4
E|----------------------------------|----------------------------------|
B|--10--10--10--10--10--10--10--10--|--10--10--10--10--10--10--10--10--|
G|--12--12--12--12--12--12--12--12--|--12--12--12--12--12--12--12--12--|
D|--12--12--12--12--12--12--12--12--|--12--12--12--12--12--12--12--12--|
A|--12--12--12--12--12--12--12--12--|--12--12--12--12--12--12--12--12--|
D|----------------------------------|----------------------------------|
  souls._______________________________________________________________
      A7
E|----------------------------------|----------------------------------|
B|--10--10--10--10--10--10--10--10--|--10--10--10--10--10--10--10--10--|
G|--12--12--12--12--12--12--12--12--|--12--12--12--12--12--12--12--12--|
D|--11--11--11--11--11--11--11--11--|--11--11--11--11--11--11--11--11--|
A|--12--12--12--12--12--12--12--12--|--12--12--12--12--12--12--12--12--|
D|----------------------------------|----------------------------------|
      Dm
E|-------------10----------|-------------10----------|-------------10----------|--------------10----------|
B|-------10-------10----10-|-------10-------10----10-|-------10-------10----10-|--------10-------10----10-|
G|----10----10-------10----|----10----10-------10----|----10----10-------10----|-----10----10-------10----|
D|-12----------------------|-12----------------------|-12----------------------|--12----------------------|
A|-------------------------|-------------------------|-------------------------|--------------------------|
D|-------------------------|-------------------------|-------------------------|--------------------------|

          Dm
E|--------------------|--------------------|--------------------|--------------------|
B|--------------------|--------------------|--------------------|--------------------|
G|--7*----------------|--------------------|--------------------|--------------------|
D|--------------------|--------------------|--------------------|--------------------|
A|--5*----------------|--------------------|--------------------|-----------------5--|
D|--------------------|--------------------|--------------------|--------------------|

Pré-Solo:

E|--------------------------|--------------------------|--------------------------|--------------------------|
B|--------------------------|--------------------------|--------------------------|--------------------------|
G|-10-10-10-10-10-10-10-10--|--9--9--9--9--7--7--7--7--|--6--6--6--6--6--6--6--6--|--4--4--4--4--6--6--6--6--|
D|--------------------------|--------------------------|--------------------------|--------------------------|
A|--8--8--8--8--8--8--8--8--|--7--7--7--7--5--5--5--5--|--4--4--4--4--4--4--4--4--|--2--2--2--2--4--4--4--4--|
D|--------------------------|--------------------------|--------------------------|--------------------------|

E|-----------------|---------------------|----------------------------------|-----------------------|
B|-----------------|---------------------|----------------------------------|-----------------------|
G|-7-7-7-7-7-7-7-7-|-9-9-9-9-10-10-10-10-|--11--11--11--11--11--11--11--11--|------------11--11--x--|
D|-----------------|---------------------|----------------------------------|-----------------------|
A|-5-5-5-5-5-5-5-5-|-7-7-7-7-8--8--8--8--|---9---9---9---9---9---9---9---9--|-------------9---9--x--|
D|-----------------|---------------------|----------------------------------|-----------------------|

E|---------------------------|----------------------------------|--------------------------|------------------------------|
B|--tr~~~~~~~~~~~~-----------|----------------------------------|--------------------------|------------------------------|
G|--(12 13)12-------x--x--x--|--12--12--12--12--10--10--10--10--|--9--9--9--9--9--9--9--9--|--10--10--10--10--9--9--9--9--|
D|---------------------------|----------------------------------|--------------------------|------------------------------|
A|------------------x--x--x--|--10--10--10--10---8---8---8---8--|--7--7--7--7--7--7--7--7--|---8---8---8---8--7--7--7--7--|
D|---------------------------|----------------------------------|--------------------------|------------------------------|

E|--------------------------|--------------------------|------------------|--------------------------||
B|--------------------------|--------------------------|------------------|--------------------------||
G|--7--7--7--7--7--7--7--7--|--7--7--7--7--7--7--7--7--|--6---------------|--------------------------||
D|--------------------------|--------------------------|------------------|--------------------------||
A|--5--5--5--5--5--5--5--5--|--5--5--5--5--5--5--5--5--|--4------------x--|--x--x--x--x--x--x--x--x--||
D|--------------------------|--------------------------|------------------|--------------------------||

Solo:
E|-------------------------|--------------------------|--------------------------|--------------------------|
B|-------------------------|--------------------------|--------------------------|--------------------------|
G|-------------------------|--------------------------|--------------------------|--------------------------|
D|-------------------------|--------------------------|--------------------------|--------------------------|
A|-5--4--3--0--------------|--------------------3--4--|--5--4--3--0--------------|--------------------3--4--|
D|-------------6--5--3--0--|--3--0--5--6--7--0--------|--------------6--5--3--0--|--3--0--5--6--7--0--------|

E|--------------------------|--------------------------|--------------------------|--------------------|
B|--------------------------|--------------------------|--------------------------|--------------------|
G|--------------------------|--------------------------|--------------------------|--------------------|
D|--------------------------|--------------------------|--------------------------|--------------------|
A|--5--4--3--0--------------|--5--4--3--0--------------|--5--4--3--0--------------|--5--4--3/9--(9)5--|
D|--------------6--5--3--0--|--------------6--5--3--0--|--------------6--5--3--0--|--------------------|

E|--------------------------|--------------------------|--------------------------|-------------------------|
B|--------------------------|--------------------------|--------------------------|-------------------------|
G|--------------------------|--------------------------|--------------------------|-------------------------|
D|--------------------------|--------------------------|--------------------------|-------------------------|
A|--5--4--3--0--------------|--5--4--3--0--------------|--5--4--3--0--------------|--5--4--3--0-------------|
D|--------------6--5--3--0--|--------------6--5--3--0--|--------------6--5--3--0--|-------------6--5--3--0--|

E|-----------------------0--|------0------0---------|--0------------------||
B|-----------------------0--|------0------0---------|--0------------------||
G|-----------------------0--|------0------0---------|--0------------------||
D|-----------------------0--|------0------0---------|--0------------------||
A|--5--4--3--0-----------0--|------0------0---------|--0------------------||
D|--------------6--5--3--0--|------0------0---------|--0------------------||
Composição de Matthew Bellamy
Colaboração e revisão:
  • Lucas Ribeiro
1.654 exibições
    • ½ Tom
    • A
    • Bb
    • B
    • C
    • Db
    • D
    • Eb
    • E
    • F
    • F#
    • G
    • Ab
  • Adicionar à lista

    0 comentários

    Ver todos os comentários

    Conseguiu tocar?

    0 Tocaram 0 Ainda não

    Grave um vídeo tocando Micro Cuts e nos envie!

    00:00 / 00:00
    Outros vídeos desta música
    Repetir Qualidade Automático
    Outros vídeos desta música
    00:00 / 00:00
    Automático

    Cifra Club Pro

    Aproveite o Cifra Club com benefícios exclusivos e sem anúncios
    Cifra Club Pro
    Aproveite o Cifra Club com benefícios exclusivos e sem anúncios
    OK