Cifra Club

Aprenda

Uno

Muse

Cifra: Principal (violão e guitarra)
Já pensou em usar uma coleção de roupas do Cifra Club? Responda as perguntas abaixo e nos ajude nessa missão! →
tom: C
Guitarra 1:

  Em                         Am                        B7           Am           Em
|-3-2--3-2--3--3-2--3-2--3--3-2--3-2--3--3-2--3-2--3--3-2--3-2--3--3-2--3-2--3--3-2--3-2--3--3-2--3-2--3-5|
|---------------------------------------------------------------------------------------------------------|
|---------------------------------------------------------------------------------------------------------|
|---------------------------------------------------------------------------------------------------------|
|---------------------------------------------------------------------------------------------------------|
|---------------------------------------------------------------------------------------------------------|

Guitarra 2:

  Em            Am           B7           Am           Em
|-0-0-0-0-(x4)-0-0-0-0-(x4)----------------------------------------|
|---------------------------4-4-4-4-(x2)-5-5-5-5-(x2)-5-5-5-5-(x4)-|
|------------------------------------------------------------------|
|------------------------------------------------------------------|
|------------------------------------------------------------------|
|------------------------------------------------------------------|

  Em                                                       Am
|-6-6-5-5-0-0-6-6-5-5-0-0-6---6-6-5-5-0-0-6-6-5-5-0-0-6---6-6-5-5-0-0-6-6-5-5-0-0-6---6-6-5-5-0-0-6-6-5-5-0-0-6-|
|---------------------------------------------------------------------------------------------------------------|
|---------------------------------------------------------------------------------------------------------------|
|---------------------------------------------------------------------------------------------------------------|
|---------------------------------------------------------------------------------------------------------------|
|---------------------------------------------------------------------------------------------------------------|

  B7                           Am
|-6-6-5-5-----6-6-5-5-----6---6-6-5-5-0-0-6-6-5-5-0-0-6-----|
|---------4-4---------4-4---------------------------------0-|
|---------------------------------------------------------0-|
|-----------------------------------------------------------|
|-----------------------------------------------------------|
|-----------------------------------------------------------|

           Em
This means nothing to me
               Am
'Cause you are nothing to me
             B7
And it means nothing to me
              Em
That you blew this away

'Cause you could have been number one
If you only found the time
And you could have ruled the whole world
If you had the chance

Refrão:

               Em
You could have been number one
                   Am
And you could have ruled the whole world
                  B7              Am
And we could have had so much fun
                Em
But you blew it away

Solo:

  Em                           Am               B7        Am               Em
|------------------------------------------------------------------------------0--|
|------------------------------------------------------------------------------0--|
|------------------------------------------------------------------------------0--|
|------------------------------------------------------------------------------2--|
|-4--3--2-2----2-------------------------4--3--2-2----2-------------4--3--2-------|
|------------3------0-2-3--2--2--0--0---------------2------0-2-3-0----------------|

             Em
You're still nothing to me
            Am
And this is nothing to me
              B7
And you don't know what you've done
                Em
But I'll give you a clue

|--6---6-----5----4----4------4--|
|--------------------------5-----|
|--------------------------------|
|--------------------------------|
|--------------------------------|
|--------------------------------|
  You could have been num-ber one  

If you only had the chance

|----6----6-----5----4-----4---------4----|
|-------------------------------4---------|
|-----------------------------------------|
|-----------------------------------------|
|-----------------------------------------|
|-----------------------------------------|
 And you could have ruled the whole world 

If you had the time                       

(Refrão 2x)

  Em                                                       Am
|-6-6-5-5-0-0-6-6-5-5-0-0-6---6-6-5-5-0-0-6-6-5-5-0-0-6---6-6-5-5-0-0-6-6-5-5-0-0-6---6-6-5-5-0-0-6-6-5-5-0-0-6-|
|---------------------------------------------------------------------------------------------------------------|
|---------------------------------------------------------------------------------------------------------------|
|---------------------------------------------------------------------------------------------------------------|
|---------------------------------------------------------------------------------------------------------------|
|---------------------------------------------------------------------------------------------------------------|

  B7                           Am
|-6-6-5-5-----6-6-5-5-----6---6-6-5-5-0-0-6-6-5-5-0-0-6-----|
|---------4-4---------4-4---------------------------------0-|
|---------------------------------------------------------0-|
|-----------------------------------------------------------|
|-----------------------------------------------------------|
|-----------------------------------------------------------|
Composição de Matthew Bellamy
Colaboração e revisão:
  • Guilherme Negrão
  • Jean B
4.813 exibições
    • ½ Tom
    • A
    • Bb
    • B
    • C
    • Db
    • D
    • Eb
    • E
    • F
    • F#
    • G
    • Ab
  • Adicionar à lista

    0 comentários

    Ver todos os comentários
    00:00 / 00:00
    Outros vídeos desta música
    Repetir Qualidade Automático
    Outros vídeos desta música
    00:00 / 00:00
    Automático

    Cifra Club Pro

    Aproveite o Cifra Club com benefícios exclusivos e sem anúncios
    Cifra Club Pro
    Aproveite o Cifra Club com benefícios exclusivos e sem anúncios
    OK