Cifra Club

Pegando o Ônibus

Musical JM

Cifra: Principal (violão e guitarra)
tom: G
G                        Am
Eu moro aqui, você mora aí
            C                       G
Estamos tão longe, será que vai dar certo?

( G  Am  C  D  G )

[Intro]

E|--------------------------------------------|
B|--------------------------------------------|
G|--2--2--0-----------------------------------|
D|-----------2--0-----------------------------|
A|-----------------2--------------------------|
E|--------------------------------------------|

E|--------------------------------------------|
B|--------------------------------------------|
G|---------------------2----------------------|
D|---------------0--2-------------------------|
A|--0-0-0--2--3-------------------------------|
E|--------------------------------------------|

E|--------------------------------------------|
B|--0--------1--------------------------------|
G|-----2--0-----4--2--0-----------------------|
D|--------------------------------------------|
A|--------------------------------------------|
E|--------------------------------------------|

G                        Am
Eu moro aqui, você mora aí
            C                       G
Estamos tão longe, será que vai dar certo?

E|--------------------------------------------|
B|--------------------------------------------|
G|--7^9--5--7/9--7----------------------------|
D|--------------------------------------------|
A|--------------------------------------------|
E|--------------------------------------------|

         G
Nessa distância

E|--------------------------------------------|
B|--12--10------------------------------------|
G|----------12--------------------------------|
D|--------------12--7--5—-4-------------------|
A|--------------------------------------------|
E|--------------------------------------------|

               D
   Dá tanta saudade

E|--------------------------------------------|
B|-------------5------------------------------|
G|-------5--7-----7--5-----5------------------|
D|--5/7-----------------7-----7--7------------|
A|--------------------------------------------|
E|--------------------------------------------|

          C                                    G                G F#m Em
Você está lá, porque foi morar longe da minha cidade?

E|--------------------------------------------|
B|--15--13------------------------------------|
G|----------14--12~--12--11-------------------|
D|---------------------------14--12-----------|
A|--------------------------------------------|
E|--------------------------------------------|

D            C            G                       D
Eu te amo, você me ama... a distância não vai impedir

E|--------------------------------------------|
B|--------------------------------------------|
G|---------------4--5---5--4------------------|
D|--4-4-4--5--7---------------7--5--4---------|
A|--------------------------------------------|
E|--------------------------------------------|

                  C               G                    D
E a minha grana gastei em cartão ligando toda noite pra ti

E|--------------------------------------------|
B|--10--12--10--12--10--10--------------------|
G|--11--12--11--12--11--11--------------------|
D|--------------------------------------------|
A|--------------------------------------------|
E|--------------------------------------------|
          C  G
Tudo por amor

G                                                     D
Porto alegre é longe, tô pegando o ônibus pra te encontrar
                Am              D                  G
Eu tô indo pra aí, a saudade apertou até me fez chorar
00:00 / 00:00
Outros vídeos desta música
Repetir
Outros vídeos desta música
Compositor não encontrado.
Colaboração e revisão:
136.099 exibições
    • ½ Tom
    • A
    • Bb
    • B
    • C
    • Db
    • D
    • Eb
    • E
    • F
    • F#
    • G
    • Ab
  • Adicionar à lista

    0 comentários

    Ver todos os comentários

    Entre para oCifra Club PRO

    Tenha acesso a benefícios exclusivos no App e no Site

    • Chega de anúncios

    • Prioridade de compra em lançamentos

    • Mais recursos no app do Afinador

    • Atendimento Prioritário

    • Descontos nos produtos Cifra Club

    • Ajude a produzir mais conteúdo

    00:00 / 00:00

    Cifra Club Pro

    Aproveite o Cifra Club com benefícios exclusivos e sem anúncios
    Cifra Club Pro
    Aproveite o Cifra Club com benefícios exclusivos e sem anúncios
    OK