Cifra Club

Aprenda

Fuga nº II

Os Mutantes

Cifra: Principal (violão e guitarra)
Tom: A#
Intr.: A9 Am/9 A4/9 Am4/9

E|-------------------------|------------------------|------------------------|
B|-------------------------|------------------------|------------------------|
G||*--7----4-------4-----4--|--7----4-------4-----4--|--7----4-------4-----4--|
D||*----------7-------7-----|----------7-------7-----|----------7-------7-----|
A|-------------------------|------------------------|------------------------|
E|-------------------------|------------------------|------------------------|

E|------------------------|------------------------|------------------------|
B|------------------------|------------------------|------------------------|
G|--7----4-------4-----4--|--5----2-------2-----2--|--5----2-------2-----2--|
D|----------7-------7-----|----------5-------5-----|----------5-------5-----|
A|------------------------|------------------------|------------------------|
E|------------------------|------------------------|------------------------|

E|------------------------|-------------------------|
B|------------------------|-------------------------|
G|--3----0-------0-----0--|--3----0-------0-----0--*|
D|----------3-------3-----|----------3-------3-----*|
A|------------------------|-------------------------|
E|------------------------|-------------------------|

A
Hoje eu vou fugir de casa
             Am
Vou levar a mala cheia de ilusão
A
Vou deixar alguma coisa velha
 Am
Esparramada toda pelo chão
A
Vou correr no automóvel enorme e forte
   Am
A sorte a morte a esperar
A
Vultos altos e baixos
             Am                A
Que me assustavam só em olhar

   A  D  C#m  D   A
Pra onde eu vou, ah
              D             A
 Pra onde eu vou, venha também
              D             A
Pra onde eu vou, venha também
              F
Pra onde eu vou

 A
Faróis altos e baixos que me
      Am
fotografam a me procurar
 A
Dois olhos de mercúrio iluminam meus
 Am
passos a me espionar
A                                         Am
O sinal está vermelho e os carros vão passando

E eu ando, ando, ando
A                                    Am
Minha roupa atravessa e me leva pela mão
                           A
Do chão, do chão, do chão

Refrão
Composição de Arnaldo Baptista / Rita Lee
Colaboração e revisão:
  • Mateus
  • Philip Liger
8.269 exibições
    • ½ Tom
    • A
    • Bb
    • B
    • C
    • Db
    • D
    • Eb
    • E
    • F
    • F#
    • G
    • Ab
  • Adicionar à lista

    0 comentários

    Mostrar mais comentários

    Conseguiu tocar?

    2 Tocaram 1 Ainda não

    Grave um vídeo tocando Fuga nº II e mande pra gente!

    00:00 / 00:00
    outros vídeos desta música
    repetir qualidade Automático
    Outros vídeos desta música
    00:00 / 00:00
    Automático

    Cifra Club Pro

    Aproveite o Cifra Club com benefícios exclusivos e sem anúncios
    Cifra Club Pro
    Aproveite o Cifra Club com benefícios exclusivos e sem anúncios
    OK