Cifra Club

I Think Im Falling

M.Y.M.P.

Cifra: Principal (violão e guitarra)
exibições 392
Tom: B
Tabbed by: Lester Lloyd B. Olmillo
Feel Free to comment.
Message me to friendster/email me... *

Dedicated to : *.=)

Accuracy: around 99% lol =)

Tuning: Standard

Intro:

     B                  Eb             C#m           E
E|-------7----7-----------6----6---------4-----4---------7-----7-------|
B|-------7----7-----------7----7---------5-----5---------7-----7-------|
G|-------8----8-----------8----8---------6-----6---------9-----9-------|
D|---------------------------------------------------------------------|
A|---------------------6----6---------4-----4---------7-----7----------|
E|----7----7-----------------------------------------------------------|2x


(this part can be played by 2 guitars,but it can also be played in one)
E|-------7---------7---6--6---------6---4--4-----4--------7-----7---|
B|-------7------7------7--7------7------5--5-----5--------7-----7---|
G|-------8---8---------8--8---8---------6--6-----6--------9-----9---|
D|------------------------------------------------------------------|
A|---------------------6----------------4------4--------7----7------|
E|---7--------------------------------------------------------------|2x

Then start Verse:

   B                   Eb             C#m              E
E|---------7----7-----------6----6---------4-----4---------7-----7-------|
B|---------7----7-----------7----7---------5-----5---------7-----7-------|
G|---------8----8-----------8----8---------6-----6---------9-----9-------|
D|-----------------------------------------------------------------------|
A|-----------------------6-----6-------4------4---------7-----7----------|
E|---7-------7-----------------------------------------------------------|
(just repeat this over and over for the whole verse)
wanna tell you baby
that you're the one that im thinking of
but your heart is still with her
and i think she's the one that you love
i only want you happy
even if it's not with me
maybe one day
you'll open up your eyes and you'll see


Chorus:

E|--------7-----------7---6--6---------6---4--4-----4--------7-----7-------|
B|--------7--------7------7--7------7------5--5-----5--------7-----7-------|
G|--------8-----8---------8--8---8---------6--6-----6--------9-----9-------|
D|-------------------------------------------------------------------------|
A|------------------------6----------------4------4-------7----7-----------|
E|--7----------------------------------------------------------------------|

                   
    B                   Eb             C#m             E                
E|---------7----7-----------6----6---------4-----4---------7-----7-------|
B|---------7----7-----------7----7---------5-----5---------7-----7-------|
G|---------8----8-----------8----8---------6-----6---------9-----9-------|
D|-----------------------------------------------------------------------|
A|-----------------------6----6---------4-----4---------7-----7----------|
E|---7-------7-----------------------------------------------------------|


That i think i'm falling
maybe i'm falling for you
yeah i think i'm falling
baby i'm falling for you


2nd Verse: (same sa 1st Verse.)
From the first time
you laid your lips on mine
it feels like the smile on my face
will last till the end of time
but im not so sure
you're the one that i should pursue
my mind tells me no
but my heart only says that it's you

Chorus (Same sa 1st chorus)
That i think i'm falling
maybe i'm falling for you
yeah i think i'm falling
baby i'm falling for you


Bridge:

     C#m                          G#m
E|--------4----4-------4----4----------4-----4-------4----4---------|
B|--------5----5-------5----5----------4-----4-------4----4---------|
G|--------6----6-------6----6----------4-----4-------4----4---------|
D|------------------------------------------------------------------|
A|---4------4-----4------4------------------------------------------|
E|---------------------------------4-----4------4------4------------|
                    Only time will tell

  C#m                          G#m
E|--------4----4-------4----4----------4-----4-------4----4---------|
B|--------5----5-------5----5----------4-----4-------4----4---------|
G|--------6----6-------6----6----------4-----4-------4----4---------|
D|------------------------------------------------------------------|
A|---4------4-----4------4------------------------------------------|
E|----------------------------------4-----4------4------4-----------|
     The mystery has yet to unfold

  C#m                          G#m
E|--------4----4-------4----4----------4-----4-------4----4---------|
B|--------5----5-------5----5----------4-----4-------4----4---------|
G|--------6----6-------6----6----------4-----4-------4----4---------|
D|------------------------------------------------------------------|
A|---4------4-----4------4------------------------------------------|
E|----------------------------------4-----4------4------4-----------|
                   Who's gonna feel love's warmth

  C#m                              E(not so sure about this part)
E|--------4----4-------4----4-----------7-----7------7--------|
B|--------5----5-------5----5-----------7-----7------7--------|
G|--------6----6-------6----6-----------9-----9------9--------|
D|------------------------------------------------------------|
A|---4------4-----4------4----------7-----7----------7--------|
E|------------------------------------------------------------|
                   And the other left in the cold


Chorus: (same with the last chorus)
Yet still i'm falling
maybe i'm falling for you
yeah i think i'm falling
baby i'm falling for you
that i think i'm falling
maybe i'm falling for you
yeah i think im falling
baby i'm falling for you



That's all =)


===>LeStErLlOyD
Acordes para:

    0 comentários

    mostrar mais comentários

    Conseguiu tocar?

    0 tocaram 0 ainda não

    Grave um vídeo tocando I Think Im Falling e mande pra gente!

    00:00 / 00:00
    outros vídeos desta música
    repetir qualidade Automático
    Outros vídeos desta música
    00:00 / 00:00
    Automático
    OK