Notificações Amigos pendentes

      Nando Reis

      Dessa Vez

      170.226 exibições
      Tom: A#
      Obs.: Acordes: F7+ (003210); Eb9 (001340); Bb5 (013300) e Cm (031300),
            em todos os acordes deve-se atacar com a palheta apenas as cordas
            que estão apertadas, dando, assim, o timbre característico da
            música.
            No F, de o efeito de, às vezes soltar a corda 3, que está 
            digitada na casa 2.
      
      
      Intr:
      
      
         F7+                      Eb9                Bb5                         F7+         
      e|-12-12-13-15--15-15-15-13-12--10-10-10-12--12-12-11-10-8-8-8-8-13-12-10-12-12-|
      B|-13-13-13-13--13-13-13-13-13--11-11-11-11--11-11-11-11-6-6-6-6----------13-13-|
      G|------------------------------------------------------------------------------|           
      D|------------------------------------------------------------------------------|
      A|------------------------------------------------------------------------------|
      E|------------------------------------------------------------------------------|
      
      
      Esta Parte acima é tocada junto com a base abaixo, escute a musica para saber melhor o ritmo.   
      
      
         F7+                   Eb9                     Bb5                   F7+
      e|------------------------------------------------------------------------------|
      B|------------------------------------------------------------------------------|
      G|-10-10----10----10---8-8----8---8-----------2-2----2---2---------10-10--10-10-|
      D|-10-10----10----10---8-8----8---8-----------2-2----2---2-8-8-7-5-10-10--10-10-|
      A|-8--8--x--8--x--8----6-6--x-6-x-6-6-6-6-5-3-1-1--x-1-x-1---------8--8---8--8--|
      E|------------------------------------------------------------------------------|
      
      
         F7+                              Eb9                      Bb5
       É bom olhar pra trás e admirar a vida que soubemos fazer
          F7+ 
       É bom olhar pra frente, é bom nunca é igual
                                  Eb9                     Bb5
       Olhar, beijar e ouvir, cantar um novo dia nascendo
                  F7+
       É bom e é tão diferente
      Bb5
       Eu não vou chorar, vc não vai chorar
      F7+                                         Cm
       Você pode entender que eu não vou mais te ver
                 Bb9                                    F7+
       Por enquanto, sorria e saiba o que eu sei: Eu te amo
      
       Imtr: F7+ Eb9 Bb5
      
       Repete 1° Parte
      
         F7+                        Eb9                      Bb5
       É bom se apaixonar, ficar feliz, te ver feliz me faz bem
           F7+                                                             
       Foi bom se apaixonar ? foi bom, e é bom e o que será? 
                    Eb9                              Bb5
       Por pensar demais eu preferi não pensar demais  dessa vez
                F7+    
       Foi tão bom e porque será
      Bb5
       Eu não vou chorar, vc não vai chorar
      F7+                                         Cm
       Ninguém precisa chorar mas eu só posso te dizer
                 Bb5                                     F7+
       Por enquanto, que nessa linda estória os diabos são anjos Ouuu
      Bb5
       Eu não vou chorar, vc não vai chorar
      F7+                                         Cm
       Você pode entender que eu não vou mais te ver
                 Bb5                                   F C  F C F
       Por enquanto, sorria e saiba o que eu sei eu te a...mo
       
        Composição: Nando ReisColaboração e revisão:
        • Riverraide
        • adriano

        Comentários 1

        140 .
        • Allan Allan: Em 08/04/2015 13:50

          Cade uma vídeo aula?? Por favor???? Muito louca essa música!!!! \o/

        140 cancelar

        conseguiu tocar?

        covers

        Grave um vídeo tocando Dessa Vez e mande pra gente!

        Ex.: http://www.youtube.com/watch?v=0IvSvIwGdwk
        ver covers de outras músicas »
        0:00 / 0:00

        Capítulos

          play/pausefechar subir/descer velocidade
          6ª corda E5ª corda A4ª corda D3ª corda G2ª corda B1ª corda E
            acordes
            publicidade
            fechar
            ok