Cifra Club

Dessa Vez

Nando Reis

Cifra: Principal (violão e guitarra)
exibições 177.031
Tom: F
[Intro]

   F7+   F5  Eb9    Bb5   F7+

E|--X--------X---0--------------X--------------------X---------------X--------------------------|
B|--1--------1---6--------------4--------------------X---------------1---------1-----------------|
G|--2--------3---5--------------3-----333-2-0--------3----333-2-0----2----2/3----0-------|
D|--3--------3---3--------------1--------------------3---------------3-------------3-------------|
A|--X--------X---0--------------X--------------------1---------------X--------------------------|
E|--X--------X---0--------------X--------------------X---------------X--------------------------|

   F7+                              Eb9                      Bb5
 É bom olhar pra trás e admirar a vida que soubemos fazer
    F7+
 É bom olhar pra frente, é bom nunca é igual
                            Eb9                     Bb5
 Olhar, beijar e ouvir, cantar um novo dia nascendo
            F7+
 É bom e é tão diferente
Bb5
 Eu não vou chorar, vc não vai chorar
F7+                                         Cm
 Você pode entender que eu não vou mais te ver
           Bb9                                    F7+
 Por enquanto, sorria e saiba o que eu sei: Eu te amo

   F7+   F5  Eb9    Bb5   F7+

E|--X--------X---0--------------X--------------------X---------------X--------------------------|
B|--1--------1---6--------------4--------------------X---------------1---------1-----------------|
G|--2--------3---5--------------3-----333-2-0--------3----333-2-0----2----2/3----0-------|
D|--3--------3---3--------------1--------------------3---------------3-------------3-------------|
A|--X--------X---0--------------X--------------------1---------------X--------------------------|
E|--X--------X---0--------------X--------------------X---------------X--------------------------|

   F7+                              Eb9                      Bb5
 É bom olhar pra trás e admirar a vida que soubemos fazer
    F7+
 É bom olhar pra frente, é bom nunca é igual
                            Eb9                     Bb5
 Olhar, beijar e ouvir, cantar um novo dia nascendo
            F7+
 É bom e é tão diferente
Bb5
 Eu não vou chorar, vc não vai chorar
F7+                                         Cm
 Você pode entender que eu não vou mais te ver
           Bb9                                    F7+
 Por enquanto, sorria e saiba o que eu sei: Eu te amo

   F7+                        Eb9                      Bb5
 É bom se apaixonar, ficar feliz, te ver feliz me faz bem
     F7+
 Foi bom se apaixonar ? foi bom, e é bom e o que será?
              Eb9                              Bb5
 Por pensar demais eu preferi não pensar demais  dessa vez
          F7+
 Foi tão bom e porque será
Bb5
 Eu não vou chorar, vc não vai chorar
F7+                                         Cm
 Ninguém precisa chorar mas eu só posso te dizer
           Bb5                                     F7+
 Por enquanto, que nessa linda estória os diabos são anjos Ouuu
Bb5
 Eu não vou chorar, vc não vai chorar
F7+                                         Cm
 Você pode entender que eu não vou mais te ver
           Bb5                                   F C  F C F
 Por enquanto, sorria e saiba o que eu sei eu te a...mo
Acordes para:
    Colaboração e revisão:
    • Philipe Couto
    • Edson C$
    • adriano ribeiro

    0 comentários

      mostrar mais comentários

      Conseguiu tocar?

      4tocaram1ainda não

      Grave um vídeo tocando Dessa Vez e mande pra gente!

      00:00 / 00:00
      outros vídeos desta música
      repetirqualidadeAutomático
      Outro vídeos desta música
        00:00 / 00:00
        OK