Cifra Club

Aprenda

Guren (Yuukimaru`s Theme)

Naruto

Cifra: Principal (violão e guitarra)
tom: G
E|------------------------------6-3--------|
B|--------4-6----8---------4-6-------------|
G|----5~------------5~--5~-----------------|
D|-----------------------------------------|
A|-----------------------------------------|
E|-----------------------------------------|

E|--3--6--8--6--3--(1)-3--1--3-------------|
B|-------------------------------3--4------|
G|------------------------------------5~---|
D|-----------------------------------------|
A|-----------------------------------------|
E|-----------------------------------------|

Composição de Takanashi Yasuharu
Colaboração e revisão:
  • Juan
  • Roberto Costa
  • Mateus Almeida
19.783 exibições
    • ½ Tom
    • A
    • Bb
    • B
    • C
    • Db
    • D
    • Eb
    • E
    • F
    • F#
    • G
    • Ab
  • Adicionar à lista

    0 comentários

    Ver todos os comentários

    Conseguiu tocar?

    14 Tocaram 1 Ainda não

    Grave um vídeo tocando Guren (Yuukimaru`s Theme) e nos envie!

    00:00 / 00:00
    outros vídeos desta música
    repetir qualidade Automático
    Outros vídeos desta música
    00:00 / 00:00
    Automático

    Cifra Club Pro

    Aproveite o Cifra Club com benefícios exclusivos e sem anúncios
    Cifra Club Pro
    Aproveite o Cifra Club com benefícios exclusivos e sem anúncios
    OK