Cifra Club

Andei Só

Natiruts

Cifra: Principal (violão e guitarra)
exibições 2.056.553
Tom: C#m
[Intro] C#m  G#m7  C#m  G#m7  F#m7  G#m7  F#m7  G#m7
        C#m  G#m7  C#m  G#m7  F#m7  G#m7  F#m7  B

[Parte 1 de 3]

E|---------------------------------------------------|
B|---------------------------------------------------|
G|---------------------------------------------------|
D|------------2----------------2---------------------|
A|------2-4-4-----2------2-4-4-----2-----------------|
E|--4-4---------4---4-4----------4-------------------|

[Parte 2 de 3]

E|---------------------------------------------------|
B|---------------------------------------------------|
G|---------------------------------------------------|
D|---------------------------------------------------|
A|----4-2-------------------4-2----------------------|
E|--4-----4-3-2-2-2-0-4---4-----4-3-2-2-2-0-4--------|

[Parte 1 de 3]

E|---------------------------------------------------|
B|---------------------------------------------------|
G|---------------------------------------------------|
D|------------2----------------2---------------------|
A|------2-4-4-----2------2-4-4-----2-----------------|
E|--4-4---------4---4-4----------4-------------------|

[Parte 3 de 3]

E|---------------------------------------------------|
B|---------------------------------------------------|
G|---------------------------------------------------|
D|---------------------------------------------------|
A|----4-2-------------------4-2-------------2--------|
E|--4-----4-3-2-2-2-0-4---4-----4-3-2-2-2-0----------|

[Primeira Parte]

C#m                     G#m7
   Preciso demonstrar pra ela
F#m7                B
    Que mereço seu tempo pra dizer
C#m                     G#m7
   Um pouco das ideias novas
F#m7              B
     E os lugares onde viajei
C#m                      G#m7
     Se ela botar fé na minha história
   F#m7                     B
 Que é de rocha e vem do coração
C#m                     G#m7
   Vou estender o pano mais bonito
F#m7                   B
     Feito na ilha de Madagascar
C#m                        G#m7
    Um Bob, um Djavan, um Jimmy na viola
F#m7                           B
    Com humildade de quem sabe onde quer chegar
C#m                    G#m7
    Reparei a flor no seu vestido
 F#m7                      B
Só guerreiro de áurea boa pode merecer
C#m                 G#m7
    E ela parou, olhou, sorriu
 F#m7           B          C#m   G#m7
Me deu um beijo e foi embora
        F#m7                  B
Não vi mais a gata mais tenho a minha gaita
     C#m     G#m7  F#m7  B
Pra me consolar

[Refrão]

C#m   G#m7   F#m7          B
An___dei só       pela noite
C#m                   A7M              F#m7   B
   Cantei um Reggae pros cachorros na rua
C#m   G#m7   F#m7          B
An___dei só       pela noite
C#m                   A7M         F#m7      B
   Cantei um verso daquele velho samba pra lua
C#m   G#m7   F#m7          B
An___dei só       pela noite

[Solo] C#m  G#m7  C#m  G#m7  F#m7  G#m7  F#m7  B

[Parte 1 de 2]

E|---------------------------------------------------|
B|---------------------------------------------------|
G|---------------------------------------------------|
D|------------2----------------2---------------------|
A|------2-4-4-----2------2-4-4-----2-----------------|
E|--4-4---------4---4-4----------4-------------------|

[Parte 2 de 2]

E|---------------------------------------------------|
B|---------------------------------------------------|
G|---------------------------------------------------|
D|---------------------------------------------------|
A|----4-2-------------------4-2-------------2--------|
E|--4-----4-3-2-2-2-0-4---4-----4-3-2-2-2-0----------|

[Primeira Parte]

C#m                     G#m7
   Preciso demonstrar pra ela
F#m7                B
    Que mereço seu tempo pra dizer
C#m                     G#m7
   Um pouco das ideias novas
F#m7              B
     E os lugares onde viajei
C#m                      G#m7
     Se ela botar fé na minha história
F#m7                     B
     Que é louca mas não é besteira não
C#m                     G#m7
   Vou estender o pano mais bonito
F#m7                   B
     Feito na ilha de Madagascar
C#m                        G#m7
    Um Bob, um Djavan, um Jimmy na viola
F#m7                           B
    Com humildade de quem sabe onde quer chegar
C#m                    G#m7
    Reparei a flor no seu vestido
 F#m7                      B
Só guerreiro de áurea boa pode merecer
C#m                 G#m7
    E ela parou, olhou, sorriu
 F#m7           B          C#m   G#m7
Me deu um beijo e foi embora
        F#m7                  B
Não vi mais a gata mais tenho a minha gaita
     C#m     G#m7  F#m7  B
Pra me consolar

[Refrão]

C#m   G#m7   F#m7          B
An___dei só       pela noite
C#m                   A7M              F#m7   B
   Cantei um Reggae pros cachorros na rua
C#m   G#m7   F#m7          B
An___dei só       pela noite
C#m                   A7M         F#m7      B
   Cantei um verso daquele velho samba pra lua

C#m   G#m7   F#m7          B
An___dei só       pela noite
C#m     A7M             F#m7  B
  Tudo bem a vida continua
C#m   G#m7   F#m7          B
An___dei só       pela noite

[Final] C#m  G#m7  C#m  G#m7  F#m7  G#m7  F#m7  B

[Parte 1 de 2]

E|---------------------------------------------------|
B|---------------------------------------------------|
G|---------------------------------------------------|
D|------------2----------------2---------------------|
A|------2-4-4-----2------2-4-4-----2-----------------|
E|--4-4---------4---4-4----------4-------------------|

[Parte 2 de 2]

E|---------------------------------------------------|
B|---------------------------------------------------|
G|---------------------------------------------------|
D|---------------------------------------------------|
A|----4-2-------------------4-2-------------2--------|
E|--4-----4-3-2-2-2-0-4---4-----4-3-2-2-2-0----------|
Acordes para:

    0 comentários

    mostrar mais comentários

    Conseguiu tocar?

    208 tocaram 8 ainda não

    Grave um vídeo tocando Andei Só e mande pra gente!

    00:00 / 00:00
    outros vídeos desta música
    repetir qualidade Automático
    Outros vídeos desta música
    00:00 / 00:00
    Automático
    Capítulos
    • Início
    • Acordes da música
    • Tocando introdução
    • Ensinando ritmo da música
    • Ensinando riff (violão 2)
    • Ensinando riff (parte 1)
    • Ensinando riff (parte 2)
    • Ensinando riff (parte 3)
    • Tocando primeira parte
    • Ensinando ritmo da primeira parte
    • Acordes do refrão
    • Tocando refrão
    • Ensinando ritmo do refrão
    • Tocando trecho da música
    • Encerramento
    OK