Cifra Club

Miss misery

Nazareth

Cifra: Principal (violão e guitarra)
tom: A
Intro
------------------------------|
------------------------------|
------------------------------|
--------------9---7-----------|
--7---9---9---7---5---9---9---|
--5---7---7-----------7---7---|

Main
-------------------------------------------|
-------------------------------------------|
-------------------------------------------|
--------------7---9---9---9---7------------|
--7---9---9---5---7---7---7---5---7---9---9|
--5---7---7-----------------------5---7---7|

Entry to Chorus
-------------------------------------------|
-------------------------------------------|
-------------------------------------------|
------9---9-------9---9---9---7------------|
--7---7---7---7---7---7---7---5---7---9---9|
--5-----------5-------------------5---7---7|

Chorus
----------------------------------------------------------------------------|
----------------------------------------------------------------------------|
----------------------------------------------------------------------------|
----------------------------------------------------------------------------|
--------------------------------------------------------------7--5----------|
---3---5---5---7---7---3---5---5---7---7---3---5---5---7---7--------5--7---7|

How the song goes=
Intro x2
Main  x4
Entry to Chorus  x1
Chorus  x2
Main  x4
Entry to Chorus  x1
Chorus  x2
Main  x4
Solo
Chorus x4

------versao 2-------
Note 1: Solos are probably not so good. I'm new to tabs.

Note 2: 15(b17)rp12  means play 15 bent to 17, then release bend and pull off to 12

Riff 1:                                     Riff 2:
E-------------------------------            E------------------------------
B-------------------------------            B------------------------------
G-7/9--9---7/9--9--------7/9--9-  (x2)      G---------7/9--9----------9--7-   (x4)
D-7/9--9---7/9--9--7--5--7/9--9-            D-7/9--9--7/9--9--7/9--9--9--7-
A-5/7--7---5/7--7--7--5--5/7--7-            A-7/9--9--5/7--7--7/9--9--7--5-
E------------------5--3---------            E-5/7--7----------5/7--7-------

Riff 3:                                     Riff 4:
E-------------------------------            E----------------
B-------------------------------            B----------------
G---------9/11--11--9--7--------            G----------------  (x3)
D-7/9--9--9/11--11--9--7--9-----            D-5--7--7/9--9--9
A-7/9--9--7/9---9---7--5--9-----            A-5--7--7/9--9--9
E-5/7--7------------------7-----            E-3--5--5/7--7--7

Riff 5:                                     Riff 6:
E-------------------------------            E-----------------------------
B-------------------------------            B-----------------------------
G-------------------------------            G-----------------9---7-------  (x2)
D-5--7--2-----------------------            D-7/9--9--7/9--9--9---7--7/9--9
A-5--7--2-----------------------            A-7/9--9--7/9--9--7---5--7/9--9
E-3--5--0-----------------------            E-5/7--7--5/7--7---------5/7--7


Riff 2 (x4): Riff 3: Riff 4 (x3): Riff 5:


Solo:
E---------------------------------------------
B------12-12-12-12-12-12-10--------12-12-15-12
G--/14----------------------12-/14------------ (Guitar 2, Riff 1:)
D---------------------------------------------
A---------------------------------------------
E---------------------------------------------

E----------------------------------------------------------------------------
B----------------------------------------------------------------------------
G-----12-12----12-12----14-12------------------------------------------------ (Guiter 2, Riff 1)
D-/14------/14------/14-------14-12----12-12h14p12----12-12-12-14/12/14------
A-----------------------------------14-------------14------------------------
E----------------------------------------------------------------------------

E-----------12-15-12-----------------------------
B------15------------15--------------------------
G-16-16--16------------16-16-14-16-14-16/18p16/14 (Guitar 2, Riff 1, Up 2 Frets)
D------------------------------------------------
A------------------------------------------------
E------------------------------------------------

E------------------12--------15-12-15-15(b17)rp12-15
B--15-15---15-15------15--15------------------------
G------16------16------16---------------------------  (Guitar 2, Riff 2, Up 2 Frets))
D---------------------------------------------------
A---------------------------------------------------
E---------------------------------------------------



Riff 2 (x4): Riff 3: Riff 4 (x3); Riff 5:

Riff 3: Riff 4 (x3); Riff 5:
Riff 3: Riff 4 (x3); Riff 5:
Riff 3: Riff 4 (x3); Riff 5:

Then Harmonics:

-----versao 3====

/=slide

                           
e]-------------------------------------------------------------------
B]-------------------------------------------------------------------
G]-------------------------------------------------------------------
D]---7/9-9---7/9-9-----------7/9-9-----7/9-9---7/9-9-----------7/9-9-
A]---5/7-7---5/7-7----7--5---5/7-7-----5/7-7---5/7-7----7--5---5/7-7-
E]--------------------5--3------------------------------5--3---------

verse:1,2,3
e]-------------------------------------------------------------------
B]-------------------------------------------------------------------
G]-------------------------------------------------------------------
D]----------7/9-9-----------9--7-----------7/9-9-----------9--7------
A]--7/9-9---5/7-7---7/9-9---7--5---7/9-9---5/7-7---7/9-9---7--5------
E]--5/7-7-----------5/7-7----------5/7-7-----------5/7-7-------------

e]-------------------------------------------------------------------
B]-------------------------------------------------------------------
G]-------------------------------------------------------------------
D]----------7/9-9-----------9--7-----------7/9-9-----------9--7------
A]--7/9-9---5/7-7---7/9-9---7--5---7/9-9---5/7-7---7/9-9---7--5------
E]--5/7-7-----------5/7-7----------5/7-7-----------5/7-7-------------

e]-------------------------------------------------------------------
B]-------------------------------------------------------------------
G]-------------------------------------------------------------------
D]----------7/9--9----7--7-------------------------------------------
A]--7/9-9---9/11-11---9--5---9---------------------------------------
E]--5/7-7--------------------7---------------------------------------

Chorus:1,2,3
e]-------------------------------------------------------------------
B]-------------------------------------------------------------------
G]-------------------------------------------------------------------
D]-------------------------------------------------------------------
A]--5--7--7/9-9---5--7--7/9-9---5--7--7/9-9---5--7--2----------------
E]--3--5--5/7-7---3--5--5/7-7---3--5--5/7-7---3--5--0----------------
00:00 / 00:00
Outros vídeos desta música
Repetir
Outros vídeos desta música
Compositor não encontrado.
Colaboração e revisão:
  • Taino Vieira
4.220 exibições
    • ½ Tom
    • A
    • Bb
    • B
    • C
    • Db
    • D
    • Eb
    • E
    • F
    • F#
    • G
    • Ab
  • Adicionar à lista

    0 comentários

    Ver todos os comentários

    Conseguiu tocar?

    0 Tocaram 0 Ainda não

    Grave um vídeo tocando Miss misery e nos envie!

    00:00 / 00:00

    Cifra Club Pro

    Aproveite o Cifra Club com benefícios exclusivos e sem anúncios
    Cifra Club Pro
    Aproveite o Cifra Club com benefícios exclusivos e sem anúncios
    OK