Cifra Club

Aprenda

Você do Meu Lado

Nechivile

Cifra: Principal (violão e guitarra)
tom: A
(intro) A E (2x) B A

E|-----4-------------------------|  
B|-4h5---7-4-4h5-4---------------|  
G|-----------------6---6-6-6-6-4-|  (2x)
D|-------------------------------|  
A|-------------------------------|  
E|-------------------------------|  

E|--------------------------------------------------|
B|-----4-4h5-4------2h4-2--------4h5-5--------------|
G|-4-6---------4--4-------2--2h4-----------4--------|
D|-------------------------------------3h5---5p3p0--|
A|--------------------------------------------------|
E|--------------------------------------------------|

E
Dói demais te ver apenas assim por foto
C#m
Dói demais te ter apenas por um foco
     A     B                        E             B
E a tua voz é o que esquenta o meu coração... Oh não

E
Eu pensei que era mais fácil esquecer
C#m
Mais te amei desde o momento em que vi você
   A                    B
Senti você e o tempo parou

              A
Mas quando a luz se apaga

A cidade cala
    C#m
E o sono não vem

E eu estou sem ninguém
      A
E o desejo exala seu perfume na sala
         B
O pensamento vai além

(refrão)
              A          E
Eu quero acordar do seu lado
             A         E
E ver teu olhar apaixonado
           B           A
Seguir sem direção, oh ilusão
                   E
De ter você do meu lado

(solo base intro)  A E (2x) B A

E|-----4-------------------------|  
B|-4h5---7-4-4h5-4---------------|  
G|-----------------6---6-6-6-6-4-|  (2x)
D|-------------------------------|  
A|-------------------------------|  
E|-------------------------------|  

E|--------------------------------------------------|
B|-----4-4h5-4------2h4-2--------4h5-5--------------|
G|-4-6---------4--4-------2--2h4-----------4--------|
D|-------------------------------------3h5---5p3p0--|
A|--------------------------------------------------|
E|--------------------------------------------------|

E
Eu pensei que era mais fácil esquecer
C#m
Mais te amei desde o momento em que vi você
   A                    B
Senti você e o tempo parou

              A
Mas quando a luz se apaga

A cidade cala
    C#m
E o sono não vem

E eu estou sem ninguém
      A
E o desejo exala seu perfume na sala
         B
O pensamento vai além

(refrão) 2x
              A          E
Eu quero acordar do seu lado
             A         E
E ver teu olhar apaixonado
           B           A
Seguir sem direção, oh ilusão
                   E
De ter você do meu lado

(solo final)

E|-----4-------|
B|-4h5---7-5-5-|
G|-------------|
D|-------------|
A|-------------|
E|-------------|
Composição de Eduardo Melo
Colaboração e revisão:
  • Paulo Ricardo
  • maria dutra
  • Murilo Braga
66.837 exibições
    • ½ Tom
    • A
    • Bb
    • B
    • C
    • Db
    • D
    • Eb
    • E
    • F
    • F#
    • G
    • Ab
  • Adicionar à lista

    0 comentários

    Ver todos os comentários

    Conseguiu tocar?

    1 Tocaram 0 Ainda não

    Grave um vídeo tocando Você do Meu Lado e nos envie!

    00:00 / 00:00
    Outros vídeos desta música
    Repetir Qualidade Automático
    Outros vídeos desta música
    00:00 / 00:00
    Automático

    Cifra Club Pro

    Aproveite o Cifra Club com benefícios exclusivos e sem anúncios
    Cifra Club Pro
    Aproveite o Cifra Club com benefícios exclusivos e sem anúncios
    OK