Cifra Club

All Downhill From Here

New Found Glory

Cifra: Principal (violão e guitarra)
Tom: C
e|---------------------|
B|---------------------|
G|---6/7-2-22-6/4-4/2--|
D|-4-x/x-2-22-x/x-x/x--|
A|-4-4/5-0-00-4/2-2/0--|
E|-2-------------------|


e|----------------------|
B|----------------------|
G|---9/11-9-99-6/4-4/6--|
D|-4-x/-x-x-xx-x/x-x/x--|
A|-x-7/-9-7-77-4/2-2/4--|
E|-2--------------------|


e|----------------------|
B|----------------------|
G|------7777-2222-4444--|
D|-4444-7777-2222-4444--|
A|-4444-5555-0000-2222--|
E|-2222-----------------|
  **** **** **** ****

Pre-Refrão
e|----------------------|
B|----------------------|
G|------7777-2222-4444--|
D|-4444-7777-2222-4444--|
A|-4444-5555-0000-2222--|
E|-2222-----------------|

ReFrão 
e|----------------------|
B|----------------------|
G|------7777------------|
D|-7777-7777-4444-2222--|
A|-7777-5555-4444-2222--|
E|-5555------2222-0000--|

solo que o chad faz
e|----------------------------------------------------|
B|----------------------------------------------------|
G|-----7-8-7-9-----7-8-7-------7-8-7-9-----7-8-7-9----|
D|-7h9---------7h9---------7h9---------7h9---------9--|
A|-----------------------7----------------------------|
E|----------------------------------------------------|
 
final
e|-----------------|
B|-----------------|
G|---6/7-2-22-6/4--|
D|-4-x/x-2-22-x/x--|
A|-4-4/5-0-00-4/2--|
E|-2---------------|
exibições 12.669
Acordes para:
    Composição: New Found Glory Colaboração e revisão:
    • Otávio DP
    • wallace rios

    0 comentários

    mostrar mais comentários

    Conseguiu tocar?

    0 tocaram 0 ainda não

    Grave um vídeo tocando All Downhill From Here e mande pra gente!

    00:00 / 00:00
    outros vídeos desta música
    repetir qualidade Automático
    Outros vídeos desta música
    00:00 / 00:00
    Automático
    OK