Cifra Club

Aprenda

Head on collision

New Found Glory

Tab de baixo: Versão 3
into
g-------------------------------|
d-------------------------------|
a-00000-----222222-555555555555-| x2
e-------000---------------------|

verse
----------------|
----------------|
----------------| x2
-5~--5~--2~--2~-|

verse part 2
-------------------------|
-------------------------|
---------2-4---4-5-4-2-4-|
-5-0-5-0-----2-----------|

verse part 3
-------------------------|
---2---2-4-2-------------|
-0---0---------4-5-4-2-4-|
-------------2-----------|

pre chorus
----------------------|
----------------------|
----------------00000-|
-00000000000000-------|

chours
-------------------------------|
-------------------------------|
-000000000000-22222222-5555555-| x3
-------------------------------|

chours part 2
-----------------------------7-|
--------------------------7----| you have to reli listen to hear those
-000000000000-22222222-555-55--| ending 7's
-------------------------------|

be the same as the into but the rest of the tab is 100% did it thismornin not a fault in it cheers
Composição de New Found Glory
151 exibições

0 comentários

Mostrar mais comentários

Conseguiu tocar?

0 Tocaram 0 Ainda não

Grave um vídeo tocando Head on collision e mande pra gente!

00:00 / 00:00
outros vídeos desta música
repetir qualidade Automático
Outros vídeos desta música
00:00 / 00:00
Automático

Cifra Club Pro

Aproveite o Cifra Club com benefícios exclusivos e sem anúncios
7 dias grátis
Cifra Club Pro
Aproveite o Cifra Club com benefícios exclusivos e sem anúncios
7 dias grátis
OK