Cifra Club

Breakfast

Newsboys

Cifra: Principal (violão e guitarra)
tom: A
Tabbed by: Andrew Niesley
Email: *
Tuning: Standard - eadgbE


INTRO:

E|------------------------------------------------|
b|------------------------------------------------|
g|------------------------------------------------|
d|-------------9---9---9---/14---14\--------------|
a|-----------7---7---7---7-/--12---\--------------|
e|------------------------------------------------|x4


VERSE:

E|------------------------------------------------|
b|------------------------------------------------|
g|------------------------------------------------|
d|-------6--6--6--6---6-/--9--9-\--4--4---4-/-----|
a|------4--4--4--4--4---/-7--7--\-2--2--2---/-----|
e|------------------------------------------------|x4

E|------------------------------------------------|
b|------------------------------------------------|
g|------------------------------------------------|
d|--11--11--11--11---11-\--9--9-/---14---14----14-|
a|-9---9---9---9---9----\-7--7--/-12---12---12----|
e|------------------------------------------------|x4

CHORUS:
     D    A    F#m  A    D    A    E
E|------------------------------------------------|
b|------------------------------------------------|
g|---7----6----2----6----7----6----1--------------|
d|---7----7----4----7----7----7----2--------------|
a|---5----7----4----7----5----7----2--------------|
e|---5----5----2----5----5----5----0--------------|x2


VERSE


CHORUS


INTRO x2


CHORUS or OUTRO:

E|-----0-2-0---------------------2-0-----0-0------|
b|---2-------2---------------2-------2------------|
g|-------------4-2-----1-2-4---2-------2----------|
d|-----------------2-4----------------------------|
a|------------------------------------------------|
e|------------------------------------------------|x2


CHORUS x2.5


KEY:
/ = Slide up
\ = Slide down


So that's my first tab. Please rate.
00:00 / 00:00
Outros vídeos desta música
Repetir
Outros vídeos desta música
Composição de Peter Furler
853 exibições
    • ½ Tom
    • A
    • Bb
    • B
    • C
    • Db
    • D
    • Eb
    • E
    • F
    • F#
    • G
    • Ab
  • Adicionar à lista

    0 comentários

    Ver todos os comentários
    00:00 / 00:00

    Cifra Club Pro

    Aproveite o Cifra Club com benefícios exclusivos e sem anúncios
    Cifra Club Pro
    Aproveite o Cifra Club com benefícios exclusivos e sem anúncios
    OK