Cifra Club

Aprenda

This Town

Niall Horan

Cifra: Principal (violão e guitarra)
tom: A (forma dos acordes no tom de G) Capotraste na 2ª casa
[Intro] G

   G
E|------------------------------------------|
B|---0---0---0---0---0---0---0---0----------|
G|---0---0---0---0---0---0---0---0----------|
D|------------------------------------------|
A|------------------------------------------|
E|-3---3---3---3---3---3---3---3------------|

[Primeira Parte]

   G
E|------------------------------------------|
B|---0---0---0---0---0---0---0---0----------|
G|---0---0---0---0---0---0---0---0----------|
D|------------------------------------------|
A|------------------------------------------|
E|-3---3---3---3---3---3---3---3------------|

   Em
E|------------------------------------------|
B|---0---0---0---0---0---0---0---0----------|
G|---0---0---0---0---0---0---0---0----------|
D|------------------------------------------|
A|------------------------------------------|
E|-0---0---0---0---0---0---0---0------------|

   C7M                C
E|------------------------------------------|
B|---0---0---0---0h1----1---1---1---1-------|
G|---0---0---0---0------0---0---0---0-------|
D|------------------------------------------|
A|-3---3---3---3------3---3---3---3---------|
E|------------------------------------------|

   G
E|------------------------------------------|
B|---0---0---0---0---0---0---0---0----------|
G|---0---0---0---0---0---0---0---0----------|
D|------------------------------------------|
A|------------------------------------------|
E|-3---3---3---3---3---3---3---3------------|

   Em
E|------------------------------------------|
B|---0---0---0---0---0---0---0---0----------|
G|---0---0---0---0---0---0---0---0----------|
D|------------------------------------------|
A|------------------------------------------|
E|-0---0---0---0---0---0---0---0------------|

   C7M                C
E|------------------------------------------|
B|---0---0---0---0h1----1---1---1---1-------|
G|---0---0---0---0------0---0---0---0-------|
D|------------------------------------------|
A|-3---3---3---3------3---3---3---3---------|
E|------------------------------------------|
 
   D
E|---2---2---2---2---2---2---2---2----------|
B|---3---3---3---3---3---3---3---3----------|
G|------------------------------------------|
D|-0---0---0---0---0---0---0---0------------|
A|------------------------------------------|
E|------------------------------------------|

 G
Waking up to kiss you and nobody's there
      Em
The smell of your perfume still stuck in the air
      C7M  C
It's hard
 G
Yesterday I thought I saw your shadow running round
      Em
It's funny how things never change in this old town
    C7M  C            D
So far     from the stars

[Pré-Refrão]

   Am               D  
E|--------------------2---2---2---2---------|
B|---1---1---1---1----3---3---3---3---------|
G|-2-2---2---2---2--------------------------|
D|-2----------------0---0---0---0-----------|
A|-0---0---0---0----------------------------|
E|------------------------------------------|

   G       G/F#     Em 
E|------------------------------------------|
B|---0---0---0---0----0---0---0---0---------|
G|---0---0---0---0----0---0---0---0---------|
D|------------------------------------------|
A|------------------------------------------|
E|-3---3---2---2----0---0---0---0-----------|

   Am               D  
E|--------------------2---2---2---2---------|
B|---1---1---1---1----3---3---3---3---------|
G|-2-2---2---2---2--------------------------|
D|-2----------------0---0---0---0-----------|
A|-0---0---0---0----------------------------|
E|------------------------------------------|

   G       G/F#     Em 
E|------------------------------------------|
B|---0---0---0---0----0---0---0---0---------|
G|---0---0---0---0----0---0---0---0---------|
D|------------------------------------------|
A|------------------------------------------|
E|-3---3---2---2----0---0---0---0-----------|

   C
E|------------------------------------------|
B|---1---1---1---1---1---1---1---1----------|
G|---0---0---0---0---0---0---0---0----------|
D|------------------------------------------|
A|-3---3---3---3---3---3---3---3------------|
E|------------------------------------------|

Am                        D
   And I want to tell you everything
                   G              G/F#        Em
The words I never got to say the first time around
Am                D
   And I remember everything
                        G                   G/F#     Em
From when we were the children playing in this fairground
                           C
Wish I was there with you now

[Refrão]

   Em
E|------------------------------------------|
B|---0---0---0---0---0---0---0---0----------|
G|---0---0---0---0---0---0---0---0----------|
D|------------------------------------------|
A|------------------------------------------|
E|-0---0---0---0---0---0---0---0------------|

   C
E|------------------------------------------|
B|---1---1---1---1---1---1---1---1----------|
G|---0---0---0---0---0---0---0---0----------|
D|------------------------------------------|
A|-3---3---3---3---3---3---3---3------------|
E|------------------------------------------|

   G
E|------------------------------------------|
B|---0---0---0---0---0---0---0---0----------|
G|---0---0---0---0---0---0---0---0----------|
D|------------------------------------------|
A|------------------------------------------|
E|-3---3---3---3---3---3---3---3------------|

   Em       D        G 
E|------------2---2-------------------------|
B|---0---0----3---3----0---0----------------|
G|---0---0-------------0---0----------------|
D|----------0---0---------------------------|
A|------------------------------------------|
E|-0---0-------------3---3------------------|

   C                Em  D  
E|--------------------0---2---0-------------|
B|---1---1---1---1----0---3---0-------------|
G|---0---0---0---0--------------------------|
D|--------------------------0---------------|
A|-3---3---3---3----------------------------|
E|------------------0---0-------------------|
 
         Em
If the whole world was watching I'd still dance with you
       C
Drive highways and byways to be there with you
G
Over and over the only truth
Em     D          G       C   Em    D
Everything comes back to you  hmmm

( G )

[Segunda Parte]

   G 
I saw that you moved on with someone new
        Em
In the pub that we met he's got his arms around you    
         C7M   C
It's so hard
    D
So hard

[Pré-Refrão]

Am                        D
   And I want to tell you everything
                   G              D/F#        Em
The words I never got to say the first time around
Am                D
   And I remember everything
                        G                   D/F#     Em
From when we were the children playing in this fairground
                           C
Wish I was there with you now

[Refrão]

              Em
'Cuz if the whole world was watching I'd still dance with you
       C
Drive highways and byways to be there with you
G
Over and over the only truth
Em     D          G       C   
Everything comes back to you
      G
You still make me nervous when you walk in the room
      Em
Then butterflies they come alive when I'm next to you
C
Over and over the only truth
Em     D          G       C  Em  D  G
Everything comes back to you

[Ponte]

Em                        D/F#
   And I know that it's wrong
                  G
That I can't move on
                             C
But there's something about you

[Refrão]

              Em
'Cuz if the whole world was watching I'd still dance with you
       C
Drive highways and byways to be there with you
G
Over and over the only truth
Em     D          G       C
Everything comes back to you

      G
You still make me nervous when you walk in the room
      Em
Then butterflies they come alive when I'm next to you
C
Over and over the only truth
Em     D          G       C    Em   D
Everything comes back to you.. hmmm
Em     D          G       C    Em  D  G
Everything comes back to you.. hmm

Composição de Bryer / Daniel / Jamie Scott / Mike Needle / Niall Horan
75.631 exibições
    • ½ Tom
    • A
    • Bb
    • B
    • C
    • Db
    • D
    • Eb
    • E
    • F
    • F#
    • G
    • Ab
  • Adicionar à lista

    0 comentários

    Ver todos os comentários

    Conseguiu tocar?

    38 Tocaram 2 Ainda não

    Grave um vídeo tocando This Town e nos envie!

    00:00 / 00:00
    Outros vídeos desta música
    Repetir Qualidade Automático
    Outros vídeos desta música
    00:00 / 00:00
    Automático

    Cifra Club Pro

    Aproveite o Cifra Club com benefícios exclusivos e sem anúncios
    Cifra Club Pro
    Aproveite o Cifra Club com benefícios exclusivos e sem anúncios
    OK