Cifra Club

Conspiracy Theory

Nick Jonas & The Administration

Cifra: Principal (violão e guitarra)
tom: E
(intro)

E|---------------------------|
B|---------------------------|
G|---------------------------|
D|---------------------------|
A|-4h6---4h6---4h6-4h6-4h6---|
E|-----0-----0-------------0-|

E|-------------------------------------------------|
B|-------------------------------------------------|
G|-------------------------------------------------|
D|-------------------------------------------------|   x2
A|-4h6---4h6---4h6-4h6-4h6-------------------------|
E|-----0-----0-------------0-5h7-5-5h7-5-5h7-5-3-0-|

(verse)
E|--------|
B|--------|
G|--------|
D|--------|
A|-4h6-6\-|
E|--------|

E|----------------------------xxxx----|
B|----------------------------xxxx----|
G|----------------------------xxxx----|
D|----------------------------xxxx----|
A|-4h6---4h6---4h6-4h6-4h6----xxxx-6\-|
E|-----0-----0-------------0--xxxx----|

E|---------------------------|
B|---------------------------|
G|---------------------------|
D|---------------------------|
A|-4h6---4h6---4h6-4h6-4h6---|
E|-----0-----0-------------0-|

(chorus 2x)
E|-xxxx------xxxx------|
B|-xxxx------xxxx------|
G|-xxxx------xxxx------|
D|-xxxx------xxxx------|
A|-xxxx------xxxx------|
E|-xxxx------xxxx------|

E|---------------------------|
B|---------------------------|
G|---------------------------|
D|---------------------------|
A|-4h6---4h6---4h6-4h6-4h6---|
E|-----0-----0-------------0-|

(verse 2x)
E|-xxxx----|
B|-xxxx----|
G|-xxxx----|
D|-xxxx----|
A|-xxxx-6\-|
E|-xxxx----|

E|---------------------------|
B|---------------------------|
G|---------------------------|
D|---------------------------|
A|-4h6---4h6---4h6-4h6-4h6---|
E|-----0-----0-------------0-|

(chorus 2x)
E|-xxxx------xxxx------|
B|-xxxx------xxxx------|
G|-xxxx------xxxx------|
D|-xxxx------xxxx------|
A|-xxxx------xxxx------|
E|-xxxx------xxxx------|

E|---------------------------|
B|---------------------------|
G|---------------------------|
D|---------------------------|
A|-4h6---4h6---4h6-4h6-4h6---|
E|-----0-----0-------------0-|

(bridge)
E|----------------------------------------------|
B|----------------------------------------------|
G|----------------------------------------------|
D|-----4-----------4----------------------------|  x4
A|-4-6---6~----4-6---6~--------4----------4-----|
E|-------------------------5-7---7~----5-7---7~-|

E|----------------------|
B|----------------------|
G|----------------------|
D|----------------------| x4
A|-6-6-6-6------6-6-6-6-|
E|----------------------|

(verse)
E|------|
B|------|
G|------|
D|------|
A|-6~~--|
E|-0~~--|

E|---------------------------|
B|---------------------------|
G|---------------------------|
D|---------------------------|
A|-4h6---4h6---4h6-4h6-4h6---|
E|-----0-----0-------------0-|

E|-xxxx----|
B|-xxxx----|
G|-xxxx----|
D|-xxxx----|
A|-xxxx-6\-|
E|-xxxx----|

E|---------------------------|
B|---------------------------|
G|---------------------------|
D|---------------------------|
A|-4h6---4h6---4h6-4h6-4h6---|
E|-----0-----0-------------0-|

(chorus)
E|-xxxx------xxxx------xxxx------xxxx---|
B|-xxxx------xxxx------xxxx------xxxx---|
G|-xxxx------xxxx------xxxx------xxxx---|
D|-xxxx------xxxx------xxxx------xxxx---|
A|-xxxx------xxxx------xxxx------xxxx---|
E|-xxxx------xxxx------xxxx------xxxx---|

(outro)
E|---------------------------|
B|---------------------------|
G|---------------------------|
D|---------------------------|
A|-4h6---4h6---4h6-4h6-4h6---|
E|-----0-----0-------------0-|

E|----------------------------------------------|
B|----------------------------------------------|
G|----------------------------------------------|
D|-----4-----------4----------------------------|  x2
A|-4-6---6~----4-6---6~--------4----------4-----|
E|-------------------------5-7---7~----5-7---7~-|

E|--------------------------------------------------------|
B|--------------------------------------------------------|
G|--------------------------------------------------------|
D|-----1----------4-3----4-6-4-3-4-3----------------------|
A|-2-4---4----4-6--------------------6-4-1-2----2-1-------|
E|--------------------------------------------------3-2-0-|

(end)
E|-----------------------------|
B|-----------------------------|
G|-----------------------------|
D|-----------------------------|
A|-4h6---4h6---4h6-4h6-4h6-6-6-|
E|-----0-----0-------------0-0-|
00:00 / 00:00
Outros vídeos desta música
Repetir
Outros vídeos desta música
Compositor não encontrado.
Colaboração e revisão:
  • Lizandra
5.745 exibições
    • ½ Tom
    • A
    • Bb
    • B
    • C
    • Db
    • D
    • Eb
    • E
    • F
    • F#
    • G
    • Ab
  • Adicionar à lista

    0 comentários

    Ver todos os comentários

    Conseguiu tocar?

    0 Tocaram 0 Ainda não

    Grave um vídeo tocando Conspiracy Theory e nos envie!

    Entre para oCifra Club PRO

    Tenha acesso a benefícios exclusivos no App e no Site

    • Chega de anúncios

    • Prioridade de compra em lançamentos

    • Mais recursos no app do Afinador

    • Atendimento Prioritário

    • Descontos nos produtos Cifra Club

    • Ajude a produzir mais conteúdo

    00:00 / 00:00

    Cifra Club Pro

    Aproveite o Cifra Club com benefícios exclusivos e sem anúncios
    Cifra Club Pro
    Aproveite o Cifra Club com benefícios exclusivos e sem anúncios
    OK