Cifra Club

Aprenda

Far Away

Nickelback

Cifra: Principal (violão e guitarra)
tom: B (forma dos acordes no tom de C) Afinação: Eb Ab Db Gb Bb Eb
[Intro] C  G4  Am7  F5(7M/9)

[Violão 1]

   C     G4    Am7   F5(7M/9)
E|------------------------------------------|
B|-1----------------------------------------|
G|-0----------------------------------------|
D|-2----------------------------------------|
A|-3-3/5---5/7---3/5------------------------|
E|-------3-----5-----1----------------------|

[Violão 2]

   C                G4 
E|------------------------------------------|
B|-----1---0h1---1------1---0h1---1---------|
G|---0---0-----0------0---0-----0-----------|
D|------------------------------------------|
A|-3----------------------------------------|
E|------------------3-----------------------|

   Am7              F5(7M/9)
E|------------------------------------------|
B|-----1---0h1---1------1---3p1---1---------|
G|---0---0-----0------0---0-----0-----------|
D|------------------3-----------------------|
A|-0----------------------------------------|
E|------------------------------------------|

[Primeira Parte]

[Violão 1]

   C   G4  Am7  F5(7M/9)
E|------------------------------------------|
B|-1---1---1----1---------------------------|
G|-0---0---0----0---------------------------|
D|-2---0---2----3---------------------------|
A|-3-------0--------------------------------|
E|-----3------------------------------------|

[Violão 2]

   C                G4 
E|------------------------------------------|
B|-----1---0h1---1------1---0h1---1---------|
G|---0---0-----0------0---0-----0-----------|
D|------------------------------------------|
A|-3----------------------------------------|
E|------------------3-----------------------|

   Am7              F5(7M/9)
E|------------------------------------------|
B|-----1---0h1---1------1---3p1---1---------|
G|---0---0-----0------0---0-----0-----------|
D|------------------3-----------------------|
A|-0----------------------------------------|
E|------------------------------------------|

   D9(11)
E|---------0---------------0----------------|
B|-----3-----3---3-----3-----3---3----------|
G|---2---2-----2-----2---2-----2------------|
D|-0---------------0------------------------|
A|------------------------------------------|
E|------------------------------------------|
   
   F5(7M/9)
E|---------0--------0-----------------------|
B|-----1-----1---1--1-----------------------|
G|---0---0-----0----0-----------------------|
D|-3----------------3-----------------------|
A|------------------------------------------|
E|------------------------------------------|

C       G4          Am7     F5(7M/9)  C
  This time, this place, misused, mistakes
     G4        Am7         F5(7M/9)       C
Too long, too late who was I to make you wait?
           G4               Am7
Just one chance, just one breath
         F5(7M/9)                  
Just in case there's just one left
D9(11)
      'Cause you know
      F5(7M/9)
You know, you know

[Refrão]

[Violão 2]

E|-12-------12-------12---------------------|
B|----13-------13-------13------------------|
G|-------12-------12------------------------|
D|------------------------------------------|
A|------------------------------------------|
E|------------------------------------------|

E|-10-------10-------10---------------------|
B|----13-------13-------13------------------|
G|-------12-------12------------------------|
D|------------------------------------------|
A|------------------------------------------|
E|------------------------------------------|

E|-10------10------10-----------------------|
B|----13------13------13--------------------|
G|-------9-------9--------------------------|
D|------------------------------------------|
A|------------------------------------------|
E|------------------------------------------|

C9         G6
   That I love you
Am7(9)         F5(7M/9)       C9
       I have loved you all along
       G6
And I miss you
Am7(9)            F5(7M/9)
       Been far away for far too long
C9          G6      Am7(9)           F5(7M/9)
   I keep dreaming you'll be with me
                  C9
And you'll never go
       G6
Stop breathing
Am7(9)         F5(7M/9)
If I don't see         you anymore

( C  G4  Am7  F5(7M/9) )

[Primeira Parte]

C          G4        Am7
  One my knees, I'll ask
       F5(7M/9)           C
Last chance for one last dance
             G4            Am7
'Cause with you, I'd withstand
        F5(7M/9)          C
All of hell to hold your hand
            G4                Am7
I'd give it all, I'd give for us
          F5(7M/9)             D9(11)
Give anything but I won't give up

'Cause you know,
      F5(7M/9)
You know, you know

[Refrão]

C9         G6      
   That I love you
Am7(9)         F5(7M/9)       C9
       That I loved you all along
       G6      
And I miss you
Am7(9)          F5(7M/9)              
       Been far away for far too long
C9          G6       Am7(9)           F5(7M/9)
   I keep dreaming  you'll be with me
                  C9
And you'll never go
       G6     
Stop breathing if
Am7(9)         F5(7M/9)
If I don't see         you anymore

[Segunda Parte]

C          G4
  So far away
Am7            F5(7M/9)
    Been far away for far too long
C          G4
  So far away
Am7            F5(7M/9)        D9(11)
    Been far away for far too long
                    F5(7M/9)
But you know, you know, you know

[Refrão]

C9    G6
   I wanted
Am7(9)    F5(7M/9)       C9
       I wanted you to stay
          G6
'Cause I needed
Am7(9)                      D9(11)
        I need to hear you say
        A4       
That I love you
Bm7(9/11)        G7M
         I have loved you all along
D9(11)           A4
       And I forgive you
Bm7(9/11)           G7M
        For being away for far too long
D9(11)           A4
       So keep breathing
Bm7(9/11)              G7M            D9(11)
        Cause i'm not leaving you anymore
   A4
Believe it
 Bm7(9/11)  G7M                 D9(11)
Hold on to me and never let me go

       A4
Keep breathing
Bm7(9/11)              G7M            D9(11)
       'Cause I'm not leaving you anymore
   A4
Believe it
Bm7(9/11)           G7M                 D9(11)
        Hold on to me and never let me go
       A4
Keep breathing
Bm7(9/11)           G7M                 D9(11)
        Hold on to me and never let me go       (2x)
Composição de Chad Kroeger / Nickelback
1.863.399 exibições
  • Simplificar cifra
    • ½ Tom
    • A
    • Bb
    • B
    • C
    • Db
    • D
    • Eb
    • E
    • F
    • F#
    • G
    • Ab
  • Adicionar à lista

    0 comentários

    Ver todos os comentários
    00:00 / 00:00
    Outros vídeos desta música
    Repetir Qualidade Automático
    Outros vídeos desta música
    00:00 / 00:00
    Automático
    Capítulos
    • Início
    • Dicas iniciais
    • Tocando a música
    • Acordes da Introdução e Primeira parte
    • Tocando Introdução e Primeira parte
    • Ensinando dedilhado da Intro (violão 1)
    • Ensinando dedilhado Primeira parte (violão 1)
    • Dedilhado da Intro e Primeira parte (violão 2 - Pa
    • Dedilhado da Intro e Primeira parte (violão 2 - Pa
    • Acordes do Refrão
    • Tocando Refrão
    • Ensinando dedilhado Refrão (violão 2)
    • Ensinando ritmo do refrão
    • Acordes do trecho final (1 tom acima)
    • Tocando trecho final
    • Ensinando variação do ritmo (violão 2)
    • Encerramento

    Cifra Club Pro

    Aproveite o Cifra Club com benefícios exclusivos e sem anúncios
    Cifra Club Pro
    Aproveite o Cifra Club com benefícios exclusivos e sem anúncios
    OK