Cifra Club

Savin' Me

Nickelback

Cifra: Principal (violão e guitarra)
Tom: E
Afinação: C  G  C  F  A  D


[Introdução] Bb7M(6)  F9  Gm9  Dm11
             Bb7M(6)  F9  Gm9

   Bb7M(6)       F9
E|------------------------------------------|
B|------------------------------------------|
G|-------0-------------0--------------------|
D|----7-------------7-----7-----------------|
A|------------------------------------------|
E|-8---------0-3-3--------------------------|

   Gm9           Dm11
E|------------------------------------------|
B|------------------------------------------|
G|-------0-------------0--------------------|
D|----7------7------3-----0-----------------|
A|------------------------------------------|
E|-5-----------0-0--------------------------|

   Bb7M(6)       F9
E|------------------------------------------|
B|------------------------------------------|
G|-------0-------------0--------------------|
D|----7-------------7-----7-----------------|
A|------------------------------------------|
E|-8---------0-3-3--------------------------|

   Gm9
E|------------------------------------------|
B|------------------------------------------|
G|-------0-------------0--------------------|
D|----7------7------7-----0-----------------|
A|------------------------------------------|
E|-5-----------5-5--------------------------|


[Primeira Parte]

  Bb7M(6)
Prison's gates 
      F9             Gm9
Won't open up for me

On these hands  
      Dm11
And knees I'm crawlin'
Bb7M(6) F9         Gm9
Oh,  I reach for you

          Bb7M(6)
Well I'm terrified 
      F9
Of these four walls
      Gm9
These iron bars 
       Dm11
Can't hold my soul in
Bb7M(6)  F9      Gm9
All   I need is you

Come please I'm callin'
    Bb7M(6)  F9       Gm9
And all I scream for you

Hurry I'm fallin', I'm fallin'


[Pré-Refrão]

  D5      F5       C5
Show me what it's like
           G5
To be the last one standing
     D5        F5        C5
And teach me wrong from right
                    G5
And I'll show you what I can be


[Primeiro Refrão]

 Bb5            F5          G5
Say it for me, say it to me
 
And I'll leave 
    ( D5     F5 )
This life behind me
 Bb5            F5           G5
Say it if it's worth saving me


[Segunda Parte]

 Bb7M(6)
Heaven's gates 
      F9             Gm9
Won't open up for me
                   Dm11
With these broken wings I'm fallin'
    Bb7M(6)  F9     Gm9
And all   I see is you

       Bb7M(6)  
These city walls 
       F9                Gm9
Ain't got no love for me
          
I'm on the ledge 
        Dm11
Of the eighteenth story
    Bb7M(6)  F9       Gm9
And Oh, I scream for you

Come please I'm callin'
    Bb7M(6)  F9        Gm9
And all   I need from you

Hurry I'm fallin', I'm fallin'


[Pré-Refrão]

  D5      F5       C5
Show me what it's like
           G5
To be the last one standing
     D5        F5        C5
And teach me wrong from right
                    G5
And I'll show you what I can be


[Segundo Refrão]

 Bb5            F5          G5
Say it for me, say it to me

And I'll leave 
    ( D5     F5 )
This life behind me
 Bb5            F5           G5
Say it if it's worth saving me

Hurry I'm fallin'


[Solo] Bb5  F5  G5  ( D5  F5 )
       Bb5  F5  G5
       Bb5  F5  G5  ( D5  F5 )
       Bb5  F5  G5

E|-----------------------------------------------------|
B|-----------------------------------------------------|
G|-----------------------------------------------------|
D|-7b8r7-5-3-5---7b8r7-5-3-5---7b8r7-5-3-5-------------|
A|-----------------------------------------------------|
E|-----------------------------------------------------|

E|-----------------------------------------------------|
B|-----------------------------------------------------|
G|-----------------------------------------------------|
D|-------------5h7---5-x-3h5---3-----------------------|
A|-5-5-5---8-x-----------------------------------------|
E|-----------------------------------------------------|

E|-----------------------------------------------------|
B|-----------------------------------------------------|
G|-----------------------------------------------------|
D|-7b8r7-5-3-5---------------5h7---5-------------------|
A|---------------5-5-5---8-----------------------------|
E|-----------------------------------------------------|

E|-----------------------------------------------------|
B|-----------------------------------------------------|
G|-----------------------------------------------------|
D|-7-7-7/8---8-8-8/10---10-10-10/12---12-12------------|
A|-----------------------------------------------------|
E|-----------------------------------------------------|

E|-----------------------------------------------------|
B|-----------------------------------------------------|
G|-b15r14-12-10-12---14b15r14-12-10-12-----------------|
D|-----------------------------------------------------|
A|-----------------------------------------------------|
E|-----------------------------------------------------|

E|-----------------------------------------------------|
B|-----------------------------------------------------|
G|-12b15r14-12-10-12-------------------12h14---12-x----|
D|---------------------12-12-12---15-------------------|
A|-----------------------------------------------------|
E|-----------------------------------------------------|

E|-----------------------------------------------------|
B|-----------------------------------------------------|
G|-10h12---10------------------------------------------|
D|-----------------------------------------------------|
A|-----------------------------------------------------|
E|-----------------------------------------------------|

E|-----------------------------------------------------|
B|----------------------------------------------18b20--|
G|-12/14---14-14-14/15---15-15-17br---15---17----------|
D|-----------------------------------------------------|
A|-----------------------------------------------------|
E|-----------------------------------------------------|


[Terceiro Refrão]

( Bb7M(6)  F9  Gm9  Dm11 )

    Bb7M(6)  F9      Gm9 
And all   I need is you

Come please I'm callin'

    Bb7M(6)  F9       Gm9
And all I scream for you

Hurry I'm fallin'

I'm fallin', I'm fallin'


[Pré-Refrão]

  D5      F5       C5
Show me what it's like
           G5
To be the last one standing
     D5        F5        C5
And teach me wrong from right
                    G5
And I'll show you what I can be


[Refrão Final]

 Bb5            F5          G5
Say it for me, say it to me

And I'll leave 
    ( D5     F5 )
This life behind me
 Bb5            F5           G5
Say it if it's worth saving me

Hurry I'm fallin'

 Bb5            F5          G5
Say it for me, say it to me

And I'll leave 
    ( D5     F5 )
This life behind me
 Bb5            F5           G5
Say it if it's worth saving me

exibições 418.200
Acordes para:

    0 comentários

    mostrar mais comentários

    Conseguiu tocar?

    67 tocaram 1 ainda não

    Grave um vídeo tocando Savin' Me e mande pra gente!

    00:00 / 00:00
    outros vídeos desta música
    repetir qualidade Automático
    Outros vídeos desta música
    00:00 / 00:00
    Automático
    Capítulos
    • Tocando a Música
    • Apresentação/Equipamentos
    • Afinação
    • Acordes
    • Tocando Intro
    • Ensinando Intro Parte 1
    • Ensinando Intro Parte 2
    • Acordes - Pré-Refrão
    • Tocando Primeira Parte / Pré-Refrão
    • Ensinando Primeira Estrofe
    • Ritmo Pré-Refrão - Violão
    • Acordes do Refrão
    • Tocando Refrão
    • Ritmo Refrão
    • Tocando Solo
    • Ensinando Solo - Parte 1
    • Ensinando Solo - Parte 2
    • Ensinando Solo - Parte 3
    • Ensinando Solo - Parte 4
    • Encerramento
    OK