Cifra Club

Sahara

Nightwish

Cifra: Principal (violão e guitarra)
tom: D
(0:16) Intro:
e|------------------------------------------------------------------------------|x4
B|------------------------------------------------------------------------------|
G|------------------------------------------------------------------------------|
D|--------------------------0---------------0-----------------------------------|
A|---------5*---0-3*-----2-3--3-2---------2-3--3-2-----5--3--2--2--3-------------|
E|--5-3-0---------------------------3----------------3--3--3--3-----------------|
(0:49)
e|---------------8h11-8------------------13-12h13p12h13p12h13--------15h16-15~--|
B|---8--8h9---8------------8-8h9--8---------------------------14-13-------------|
G|-10------10------------10--------10-8-----------------------------------------|
D|------------------------------------------------------------------------------|
A|------------------------------------------------------------------------------|
E|------------------------------------------------------------------------------|
(1:08) Verse:
e|------------------------------------------------------------------------------|x3
B|------------------------------------------------------------------------------|
G|------------------------------------------------------------------------------|
D|-3---3-3-3---------3---3-3-3---------3---3-3-3---------3---3-3-3----8---------| 2ª vez:
A|-3---3-3-3------2--3---3-3-3------2--3---3-3-3------2--3---3-3-3----6---------||-3-3-3-|x3
E|-1-1-1-1-1-0-2-0-0-1-1-1-1-1-0-2-0-0-1-1-1-1-1-0-2-0-0-1-1-1-1-1--------------||-1-1-1-|
(1:40) Chorus:
e|------------------------------------------------------------------------------|
B|------------------------------------------------------------------------------|
G|------------------------------------------------------------------------------|
D|-6---6--4---4--2--6---6--6---6--4--6---6--6---6--4--6---6-----4--2------------||-------------|
A|-6---6--4---4--2--6---6--6---6--4--6---6--6---6--4--6---6-----4--2------------||--------4----|
E|-4-0-4--2-0-2--0--4-0-4--4-0-4--2--4-0-4--4-0-4--2--4-0-4-----2--0------------||-4-4-5-4-3---|

(2:01) "Repetir Verse x2"

(2:20) "Repetir Chorus"

(3:09)
e|------------------------------------------------------------------------------------|2x
B|------------------------------------------------------------------------------------| 2ª vez:
G|-----------------------8-10*------------------------------------------------9-----8-||--3-|
D|-3-3-3-2-3--2-3-4-4-4--8-----3-2-3--2-3-4-4-4--2-3-4--2-3-3-2-3--2-3-4-4-4--9-----8-||--3-|
A|-3-3-3-2-3--2-3-4-4-4--6-----3-2-3--2-3-4-4-4--2-3-4--2-3-3-2-3--2-3-4-4-4--7-8*--6-||--1-|
E|-1-1-1-0-1--0-1-2-2-2--6-----1-0-1--0-1-2-2-2--0-1-2--0-1-1-0-1--0-1-2-2-2--7-----6-||--1-|

(4:22) "Repetir Chorus x4"


Letra:

"A ballad of dark queen echoes through night
As he flees the curse of gods, the pharaoh`s wrath

1001 nights unseen
The philosopher and the queen

Ancient mariner in a sea of sand
The burning beauty his tomb to die for

1001 nights unseen
The philosopher and the queen
Horizon`s swarming with death
Run!

Heaven has a darkened face
Dunes are soaring, as on a chase
Caravan of the cursed
Chasing him across the waves

May he now rest under aegis of mirage
As the sands slowly turn to Elysian fields

1001 nights unseen
The philosopher and the queen"
00:00 / 00:00
Outros vídeos desta música
Repetir
Outros vídeos desta música
Composição de Tuomas Holopainen
Colaboração e revisão:
  • lucas campos
4.895 exibições
    • ½ Tom
    • A
    • Bb
    • B
    • C
    • Db
    • D
    • Eb
    • E
    • F
    • F#
    • G
    • Ab
  • Adicionar à lista

    0 comentários

    Ver todos os comentários

    Conseguiu tocar?

    0 Tocaram 0 Ainda não

    Grave um vídeo tocando Sahara e nos envie!

    Entre para oCifra Club PRO

    Tenha acesso a benefícios exclusivos no App e no Site

    • Chega de anúncios

    • Prioridade de compra em lançamentos

    • Mais recursos no app do Afinador

    • Atendimento Prioritário

    • Descontos nos produtos Cifra Club

    • Ajude a produzir mais conteúdo

    00:00 / 00:00

    Cifra Club Pro

    Aproveite o Cifra Club com benefícios exclusivos e sem anúncios
    Cifra Club Pro
    Aproveite o Cifra Club com benefícios exclusivos e sem anúncios
    OK