Cifra Club

Closer

Nine Inch Nails

Tab de baixo: Principal
ok so this how to play this song ......... i'm pretty sure lol

intro/chorus
g|----1-3---------------3-5----------|
d|-----------------------------------|
a|--------3-5-------3-5--------------|
e|-----------------------------------|

verse
g|-----------------------------------|
d|--------7-7-------7-7--------------|
a|-----------------------------------|
e|----7-7-----5-7-7-----5------------|

It's pretty easy to figure out how many times to play it.  Have fun.
email- BballD*
End.
00:00 / 00:00
Outros vídeos desta música
Repetir
Outros vídeos desta música
Composição de Trent Reznor
603 exibições

0 comentários

Ver todos os comentários
00:00 / 00:00

Cifra Club Pro

Aproveite o Cifra Club com benefícios exclusivos e sem anúncios
Cifra Club Pro
Aproveite o Cifra Club com benefícios exclusivos e sem anúncios
OK