Cifra Club

Aprenda

Big Long Now

Nirvana

Tab de baixo: Versão 3
Hey * i was lookin 4 a tab to this song and they were all.....less good and more 
good.so i decided to tab it as best i * is my first tab so maybe it will be 
all the parts arnt in place but its pretty much in this order so repeat as needed.

|------------------------------------------------|
|----------------------0-------------------------|
|----8-----8---------8---8--8--10--8-------------|
|--9-----9---------9-------9---------------------|

|------------------------------------------------|
|------------------------------------------------|
|------------------------------------------------|
|--6666-5555-4444--------------------------------|

|------------------------------------------------|
|----------------------0-------------------------|
|--------------------8---8--8--10--8-------------|
|------------------9-------9---------------------|

|-------------------------------------------------|
|-------------------------------------------------|
|--555-4444444----555-4444444---555-4444444-------|
|---------------------------------------------333-|

|------------------------------------------------|
|------------------------------------------------|
|--555-4444444-----------------------------------|
|-----------------33333--22222--11111------------|
Composição de Kurt Cobain
83 exibições

0 comentários

Ver todos os comentários

Conseguiu tocar?

0 Tocaram 0 Ainda não

Grave um vídeo tocando Big Long Now e nos envie!

00:00 / 00:00
Outros vídeos desta música
Repetir Qualidade Automático
Outros vídeos desta música
00:00 / 00:00
Automático

Cifra Club Pro

Aproveite o Cifra Club com benefícios exclusivos e sem anúncios
Cifra Club Pro
Aproveite o Cifra Club com benefícios exclusivos e sem anúncios
OK