Cifra Club

Black And White Blues

Nirvana

Cifra: Principal
exibições 7.251
Tom: G
B7 G#7

e-7---7---7---7-----------5----|
B------------------------------|
G---8---8---8---8------5----5--|
D----7---7---7---7---4--4------| x2
A------------------------------|
E------------------4-----------|

A#7
e-------7---|
B-----------|
G----7---7--|
D---6-6-----| x2
A-----------|
E-6---------|

B7

e-------7----|
B------------|
G----8----8--|
D---7-7------| x2
A------------|
E-7----------|

C7

e-------8----|
B------------|
G----9----9--|
D---8--8-----| x2
A------------|
E-8----------|

C#7 C7

e-9-9-9-9-9-9-8/0-|
B-9-9-9-9-9-9-8/0-|
G-1010101010109/1
D-9-9-9-9-9-9-8/0 (Bring out the top end of the chord)
A-11111111111110/2
E-9-9-9-9-9-9-8/0
Acordes para:

    0 comentários

      mostrar mais comentários

      Conseguiu tocar?

      0tocaram0ainda não

      Grave um vídeo tocando Black And White Blues e mande pra gente!

      00:00 / 00:00
      outros vídeos desta música
      repetirqualidadeautomática
      Outro vídeos desta música
        00:00 / 00:00
        automática
        OK