Cifra Club

Come As You Are

Nirvana

Tab de baixo: Principal
Introdução guitarra + Banda

Parte 01 

G|--------------------------------------------|
D|----------5---5---------7-----7-------------|
A|-5-5-6-7----7---7-7-6-5---5-5---------------|
E|--------------------------------------------|

G|--------------------------------------------|
D|-------5---5---------7-----7----------------|
A|-5-6-7---7---7-7-6-5---5-5------------------|
E|--------------------------------------------|

Primeira parte

Come as you are, as you were

Parte 01 ( tocar 8x )

G|--------------------------------------------|
D|-------5---5---------7-----7----------------|
A|-5-6-7---7---7-7-6-5---5-5------------------|
E|--------------------------------------------|

Parte 02 ( tocar 3x )

G|--------------------------------------------|
D|--------------------------------------------|
A|--------------------------------------------|
E|-0-0--0-0-0--3-3-3-3--3-3-3-3---------------|

Parte 03

G|--------------------------------------------|
D|--------------------------------------------|
A|--------------------------------------------|
E|-0-0--0-0-0--3-3----------------------------|

Segunda parte

Come doused in mud...

Parte 01 

G|--------------------------------------------|
D|----------5---5---------7-----7-------------|
A|-5-5-6-7----7---7-7-6-5---5-5---------------|
E|--------------------------------------------|

Parte 02 ( tocar 3x )

G|--------------------------------------------|
D|-------5---5---------7-----7----------------|
A|-5-6-7---7---7-7-6-5---5-5------------------|
E|--------------------------------------------|

Parte 03 ( tocar 4x )

G|--------------------------------------------|
D|--------------------------------------------|
A|--------------------------------------------|
E|-0-0--0-0-0--3-3-3-3--3-3-3-3---------------|

Terceira parte

And I swear that I don't have a gun

Parte 01 ( tocar 3x )

G|--------------------------------------------|
D|--------------------------------------------|
A|--------------------------------------------|
E|-5-5-5-5--5-5-5-7--8-8-8-8--8-8-7-0---------|

Parte 02

G|--------------------------------------------|
D|--------------------------------------------|
A|--------------------------------------------|
E|-5-5-5-5--5-5-5-7--8-8-8-8-8----------------|

Solo de guitarra

Parte 01 

G|--------------------------------------------|
D|----------5---5---------7-----7-------------|
A|-5-5-6-7----7---7-7-6-5---5-5---------------|
E|--------------------------------------------|

Parte 02 ( tocar 9x )

G|--------------------------------------------|
D|-------5---5---------7-----7----------------|
A|-5-6-7---7---7-7-6-5---5-5------------------|
E|--------------------------------------------|

Quarta parte 

Memory, memory...

Parte 01 ( tocar 4x )

G|--------------------------------------------|
D|--------------------------------------------|
A|--------------------------------------------|
E|-0-0--0-0-0--3-3-3-3--3-3-3-3---------------|

Quinta parte

And I swear that I don't have a gun

Parte 01 ( tocar 5 x )

G|--------------------------------------------|
D|--------------------------------------------|
A|--------------------------------------------|
E|-5-5-5-5--5-5-5-7--8-8-8-8--8-8-7-0---------|

Parte 02

G|--------------------------------------------|
D|--------------------------------------------|
A|--------------------------------------------|
E|-5-5-5-5--5-5-5-7--8-8-8-8-8----------------|

Introdução 2 ( Final )

Parte 01 

G|--------------------------------------------|
D|----------5---5---------7-----7-------------|
A|-5-5-6-7----7---7-7-6-5---5-5---------------|
E|--------------------------------------------|

Parte 02 ( tocar 2x )

G|--------------------------------------------|
D|-------5---5---------7-----7----------------|
A|-5-6-7---7---7-7-6-5---5-5------------------|
E|--------------------------------------------|

Parte 03

G|--------------------------------------------|
D|-------5---5---------7-----7----------------|
A|-5-6-7---7---7-7-6-5---5-5---5-6-7----------|
E|--------------------------------------------|
exibições 168.673

0 comentários

mostrar mais comentários

Conseguiu tocar?

80 tocaram 0 ainda não

Grave um vídeo tocando Come As You Are e mande pra gente!

00:00 / 00:00
outros vídeos desta música
repetir qualidade Automático
Outros vídeos desta música
00:00 / 00:00
Automático
Capítulos
  • Tocando a Música
  • Dicas iniciais / Equipamentos
  • Introdução
  • Primeira Parte - Parte 1 de 3
  • Primeira Parte - Parte 2 de 3
  • Primeira Parte - Parte 3 de 3
  • Dicas Segunda Parte
  • Segunda Parte - Parte 1 de 3
  • Segunda Parte - Parte 2 de 3
  • Segunda Parte - Parte 3 de 3
  • Terceira Parte - Parte 1 de 2
  • Terceira Parte - Parte 2 de 2
  • Solo de Guitarra - Parte 1 de 2
  • Solo de Guitarra - Parte 2 de 2
  • Dicas Quarta Parte
  • Quarta Parte
  • Quinta Parte - Parte 1 de 2
  • Quinta Parte - Parte 2 de 2
  • Introdução Final -Parte 1 de 3
  • Introdução Final -Parte 2 de 3
  • Introdução Final -Parte 3 de 3
  • Dicas Finais
  • Ficha Técnica / Erros de Gravação
OK