Drain You

Nirvana

Composição de: Kurt Cobain
[Introdução - só Guitar]

 
[Primeira parte]

One baby to another says: I'm lucky I've...

Parte 1 de 2( 2X )
F|----------------------------------------------|
C|----------------------------------------------|
G|-2-2/-6-6-6------4-4-4-4--2-2/-6-6-6------4-4-|
D|-------------4-4----------------------4-4-----|

F|----------------------------------------------|
C|----------------------------------------------|
G|-4-4------------------------------------------|
D|----------------------------------------------|

Parte 2 de 2
F|----------------------------------------------|
C|----------------------------------------------|
G|-2-2/-6-6-6------4-4-4-4--2-2/-6-6-6------4-4-|
D|-------------4-4----------------------4-4-----|

F|----------------------------------------------|
C|----------------------------------------------|
G|-4-4------------------------------------------|
D|------2--0------------------------------------|


[Refrão]

Chew your meat for you...

Parte 1 de 2( 3x )
F|----------------------------------------------|
C|----------------------------------------------|
G|-4-4-4-4--4-4-4-2-----------------------------|
D|------------------0-0-0-0--0-0-0-0------------|

Parte 2 de 2
F|----------------------------------------------|
C|----------------------------------------------|
G|-4-4-4-4--4-4-4-4--2--0-----------------------|
D|------------------------4---------------------|


[Segunda parte]

With eyes so dilated I've became your pupil...

Parte 1 de 2 ( 3X )
F|----------------------------------------------|
C|----------------------------------------------|
G|-2-2/-6-6-6------4-4-4-4--2-2/-6-6-6------4-4-|
D|-------------4-4----------------------4-4-----|

F|----------------------------------------------|
C|----------------------------------------------|
G|-4-4------------------------------------------|
D|----------------------------------------------|

Parte 2 de 2
F|----------------------------------------------|
C|----------------------------------------------|
G|-2-2/-6-6-6------4-4-4-4--2-2/-6-6-6------4-4-|
D|-------------4-4----------------------4-4-----|

F|----------------------------------------------|
C|----------------------------------------------|
G|-4-4------------------------------------------|
D|------2--0------------------------------------|


[Refrão 2]

Chew your meat for you...

Parte 1 de 2( 3x )
F|----------------------------------------------|
C|----------------------------------------------|
G|-4-4-4-4--4-4-4-2-----------------------------|
D|------------------0-0-0-0--0-0-0-0------------|

Parte 2 de 2
F|----------------------------------------------|
C|----------------------------------------------|
G|-4-4-4-4--4-4-4-4--2--0-----------------------|
D|----------------------------------------------|


[Terceira parte]

Parte 1 ( tocar 16x )
F|----------------------------------------------|
C|----------------------------------------------|
G|----------------------------------------------|
D|-4-4-4-4--4-4-4-4--4-4-4-4--4-4-4-4-----------|


[Introdução 2]

Parte 1 
F|----------------------------------------------|
C|----------------------------------------------|
G|-2-2/-6-6-6------4-4-4-4--2-2/-6-6-6------4-4-|
D|-------------4-4----------------------4-4-----|

F|----------------------------------------------|
C|----------------------------------------------|
G|-4-4------------------------------------------|
D|----------------------------------------------|


[Quarta parte]

One baby to another says: I'm lucky I've...

Parte 1 de 2 ( 3X )
F|----------------------------------------------|
C|----------------------------------------------|
G|-2-2/-6-6-6------4-4-4-4--2-2/-6-6-6------4-4-|
D|-------------4-4----------------------4-4-----|

F|----------------------------------------------|
C|----------------------------------------------|
G|-4-4------------------------------------------|
D|----------------------------------------------|

Parte 2 de 2
F|----------------------------------------------|
C|----------------------------------------------|
G|-2-2/-6-6-6------4-4-4-4--2-2/-6-6-6------4-4-|
D|-------------4-4----------------------4-4-----|

F|----------------------------------------------| 
C|----------------------------------------------|
G|-4-4------------------------------------------|
D|------2--0------------------------------------|


[Refrão 3 Final]

Chew your meat for you...

Parte 1 de 2( 5x )
F|----------------------------------------------|
C|----------------------------------------------|
G|-4-4-4-4--4-4-4-2-----------------------------|
D|------------------0-0-0-0--0-0-0-0------------|

Parte 2 de 2
F|----------------------------------------------|
C|----------------------------------------------|
G|-4-4-4-4--4-4-4-4--2--0-----------------------|
D|-------------------------4--------------------|
Página 1 / 1

Letras e título
Acordes e artista

resetar configurações
OK