Cifra Club

Drain You

Nirvana

Tab de baixo: Principal
exibições 19.778
   Verso
|------------------------------
|------------------------------
|---2--2/6-6-6-----4-4-4-4-----
|--------------4-4-------------



    Chorus
|---------------------------------------------------
|---------------------------------------------------
|-----4-4-4-4-4-4-4---------------4-4-4-4-----------
|-2-0---------------0-0-0-0-0-0-0---------0-0-0-0-0-

|---------------------------------------------------
|---------------------------------------------------
|-4-4-4-4-4-4-4---------------4-4-4-4-2-0-----------
|---------------0-0-0-0-0-0-0-------------4-4-4-4-4-





_______________________________________________________
Contribuição: David Henrique(davidhenrique_212@hotmailcom)

0 comentários

    mostrar mais comentários

    Conseguiu tocar?

    11tocaram0ainda não

    Grave um vídeo tocando Drain You e mande pra gente!

    00:00 / 00:00
    outros vídeos desta música
    repetirqualidadeautomática
    Outro vídeos desta música
      00:00 / 00:00
      automática
      OK