Enviar cifraEntrar

Heart Shaped Box

Nirvana

Tab de baixo: Principal
exibições 57.352
A última cifra que o nosso amigo Victor Giovanni(victorgiovanni@bol.com.br) postou estava completamente errada. Aqui vai a cifra correta.
Antes de ver a cifra gostaria de pedir que vocês escutassem a música para pegar o tempo certo, pois fica difícil transcrever na cifra.
Transcrito por Guilherme Rosa (ysonnic@outlook.com)

Afinação do Baixo: C# - G# - C# - F# (Dropp D + Meio Tom Abaixo) 

OBS:Se a guitarra estiver afinada só com Dropp D vocês vão ter que subir meio tom acima (D-A-D-G)

Intro:
|-------------|   Kurt começa com o riff de guitarra ai depois entra o baixo, depois a bateria.
|-------------|
|-------------|
|--7---3---0--|




Estrofe (Riff 1):
|-------------------------------------| (She eyes me like a pisces when...i am week...)
|-------------------------------------|
|------------------------5---5---5----|
|--7-7-7-7--3-3-3-3--0-0---0---0---0--|


Refrão (Riff 2):
|-------------------------------------| (Hey! Whait! I've got a new complain!)
|-------------------------------------| 
|------9b-----5b-------5---5-4---4----|
|--7-7----3-3-----0--0---0-----5---5--|

Refrão (Riff 3):
|-------------------------------------| (Forever in debt to your priceless advice) 
|-------------------------------------|
|------9b-----5b-----5---5-5---5-4----|
|--7-7----3-3----0-0---0-----0-----0--|

Refrão (Riff 4):
|---------------------------------5---| (Hey! Whait! I've got a new complain!)
|------------------------------5------|
|------9b-----5b-----5---5--4---------|
|--7-7----3-3----0-0---0--------------|

Refrão (Riff 5):
|-------------------------------------| (Forever in debt to your priceless advice)
|-------------------------------------|
|------9b-----5b-----5---5---5--------|
|--7-7----3-3----0-0---0---0---0------|


Refrão (Riff 6):
|--------------------------------| (Advice...your adviceeee....)
|--------------------------------|
|--------------------------------|
|--3-3-3-3-3-3/12\3--0--0-0-0-0--|



Antes de voltar do Riff 6 pra a Estrofe (Riff 1) o Krist Novoselic (Baixista do Nirvana) faz um pequeno slide da 3 casa até a 7 assim.

|-------|
|-------|
|-------|
|--3/7--|

Na base do solo façam o Riff 2 e depois o Riff 5 ai voltem para o Riff 1.




ESTRUTURA DA MUSICA

Intro :x1
Riff 1:x8
Riff 2:x1
Riff 3:x1
Riff 4:x1
Riff 5:x1
Riff 2:x1
Riff 5:x1
Riff 6:x2
Riff 1:x8
Riff 2:x1
Riff 3:x1
Riff 4:x1
Riff 5:x1
Riff 2:x1
Riff 5:x1
Riff 6:x2
Riff 2:x1 -----Solo
Riff 5:x1 -----Solo
Riff 1:x10
Riff 2:x1
Riff 3:x1
Riff 4:x1
Riff 5:x1
Riff 2:x1
Riff 5:x1
Riff 6:x4
  • 1
  • 2
  • 3
  • 4
  • 5
  • 6
  • 7
  • 8
  • 9
  • 10
  • 11
  • 12
    Composição: Kurt CobainColaboração e revisão:
    • guilherme.josedarosa

    0 comentários

      mostrar mais comentários

      Conseguiu tocar?

      23tocaram0ainda não

      Grave um vídeo tocando Heart Shaped Box e mande pra gente!

      00:00 / 00:00
      outros vídeos desta música
      repetirqualidadeautomática
      • automática
      Outro vídeos desta música
        00:00 / 00:00
        automática
        • automática
        fecharplay/pause subir/descer velocidade
        fechar
        OK