Cifra Club

Rape Me

Nirvana

Cifra: Versão 4
exibições 32.320
Tom: C
Introdução: (A C E G) (sem distorção)
e|------|-------------|------|-------------|
B|------|-------------|------|-------------|
G|------|-5-5-5-5-5-5-|------|-------------| 2x
D|-7--7-|-5-5-5-5-5-5-|-2--2-|-5-5-5-5-5-5-|
A|-7--7-|-3-3-3-3-3-3-|-2--2-|-5-5-5-5-5-5-|
E|-5--5-|-X-X-X-X-X-X-|-0--0-|-3-3-3-3-3-3-|

Verso: (sem distorção)
e|-----------------------------|
B|-----------------------------|
G|-----------5-----------------| 2x
D|---7-----5-5-5---2-------5---|
A|---7---3---------2-----5-5-5-|
E|-5---5---------0---0-3-------|
A    C  E G A    C      E    G  
Rape me,    Rape me my friend 

A    C  E G A    C    E  G 
Rape me,    Rape me again 

Refrão 1: (com distorção)
e|------|-------------|------|-------------|
B|------|-------------|------|-------------|
G|------|-5-5-5-5-5-5-|------|-------------| 4x
D|-7--7-|-5-5-5-5-5-5-|-2--2-|-5-5-5-5-5-5-|
A|-7--7-|-3-3-3-3-3-3-|-2--2-|-5-5-5-5-5-5-|
E|-5--5-|-X-X-X-X-X-X-|-0--0-|-3-3-3-3-3-3-|
A           C    E   G      
I'm not the only one ahh 

A           C    E   G  
I'm not the only one ahh 

A           C    E   G  
I'm not the only one ahh 

A           C    E   G  
I'm not the only one 

Refrão 2: (sem distorção)
e|------|-------------|------|-------------|
B|------|-------------|------|-------------|
G|------|-5-5-5-5-5-5-|------|-------------| 4x
D|-7--7-|-5-5-5-5-5-5-|-2--2-|-5-5-5-5-5-5-|
A|-7--7-|-3-3-3-3-3-3-|-2--2-|-5-5-5-5-5-5-|
E|-5--5-|-X-X-X-X-X-X-|-0--0-|-3-3-3-3-3-3-|
A    C  E G A         C       E    G 
Hate me,    do it and do it again 

A     C  E G A    C      E    G  
Waste me,    Rape me my friend 

Refrão 1: (com distorção)
e|------|-------------|------|-------------|
B|------|-------------|------|-------------|
G|------|-5-5-5-5-5-5-|------|-------------| 4x
D|-7--7-|-5-5-5-5-5-5-|-2--2-|-5-5-5-5-5-5-|
A|-7--7-|-3-3-3-3-3-3-|-2--2-|-5-5-5-5-5-5-|
E|-5--5-|-X-X-X-X-X-X-|-0--0-|-3-3-3-3-3-3-|
A           C    E   G      
I'm not the only one ahh 

A           C    E   G  
I'm not the only one ahh 

A           C    E   G  
I'm not the only one ahh 

A           C    E   G  
I'm not the only one 

Passagem: (com distorção)
  C#5                A5       G F# F A
e|------------------------------------|
B|------------------------------------|
G|-6-6-6-6-6-6-6-6--------------------|
D|-6-6-6-6-6-6-6-6---7-7-7-7--5-4-3---|
A|-4-4-4-4-4-4-4-4---7-7-7-7--5-4-3---|
E|-------------------5-5-5-5--3-2-1-0-|
C#5                   A5    G F# F A
 My favourite inside source 

  C#5                A5       G F# F A
e|------------------------------------|
B|------------------------------------|
G|-6-6-6-6-6-6-6-6--------------------|
D|-6-6-6-6-6-6-6-6---7-7-7-7--5-4-3---|
A|-4-4-4-4-4-4-4-4---7-7-7-7--5-4-3---|
E|-------------------5-5-5-5--3-2-1-0-|
C#5                  A5   G F# F A
I'll kiss your open sores 

  C#5                A5       G F# F A
e|------------------------------------|
B|------------------------------------|
G|-6-6-6-6-6-6-6-6--------------------|
D|-6-6-6-6-6-6-6-6---7-7-7-7--5-4-3---|
A|-4-4-4-4-4-4-4-4---7-7-7-7--5-4-3---|
E|-------------------5-5-5-5--3-2-1-0-|
C#5               A5   G F# F A
 Appreciate your concern 

  C#5                A5       G F# F A
e|------------------------------------|
B|------------------------------------|
G|-6-6-6-6-6-6-6-6--------------------|
D|-6-6-6-6-6-6-6-6---7-7-7-7--5-4-3---|
A|-4-4-4-4-4-4-4-4---7-7-7-7--5-4-3---|
E|-------------------5-5-5-5--3-2-1-0-|
C#5                      A5   G F# F A
 You'll always stink and burn

Interludio: (com distorção)
  F                 G                  A
e|-----------------|-----------------|-0-|
B|-----------------|-----------------|-0-|
G|-----------------|-----------------|-0-|
D|-----------------|-----------------|-2-|
A|-3-3-3-3-3-3-3-3-|-5-5-5-5-5-5-5-5-|-2-|
E|-1-1-1-1-1-1-1-1-|-3-3-3-3-3-3-3-3-|-0-|

Verso: (sem distorção)
e|------|-------------|------|-------------|
B|------|-------------|------|-------------|
G|------|-5-5-5-5-5-5-|------|-------------| 2x
D|-7--7-|-5-5-5-5-5-5-|-2--2-|-5-5-5-5-5-5-|
A|-7--7-|-3-3-3-3-3-3-|-2--2-|-5-5-5-5-5-5-|
E|-5--5-|-X-X-X-X-X-X-|-0--0-|-3-3-3-3-3-3-|
A    C  E G A    C      E    G  
Rape me,    Rape me my friend 

A    C  E G A    C    E  G 
Rape me,    Rape me again 

Refrão 1: (com distorção)
e|------|-------------|------|-------------|
B|------|-------------|------|-------------|
G|------|-5-5-5-5-5-5-|------|-------------| 4x
D|-7--7-|-5-5-5-5-5-5-|-2--2-|-5-5-5-5-5-5-|
A|-7--7-|-3-3-3-3-3-3-|-2--2-|-5-5-5-5-5-5-|
E|-5--5-|-X-X-X-X-X-X-|-0--0-|-3-3-3-3-3-3-|
A           C    E   G      
I'm not the only one ahh 

A           C    E   G  
I'm not the only one ahh 

A           C    E   G  
I'm not the only one ahh 

A           C    E   G  
I'm not the only one 

Final: (com distorção)
e|------|-------------|------|-------------|
B|------|-------------|------|-------------|
G|------|-5-5-5-5-5-5-|------|-------------| 5x na 5º termina no A
D|-7--7-|-5-5-5-5-5-5-|-2--2-|-5-5-5-5-5-5-|
A|-7--7-|-3-3-3-3-3-3-|-2--2-|-5-5-5-5-5-5-|
E|-5--5-|-X-X-X-X-X-X-|-0--0-|-3-3-3-3-3-3-|

A        C 
Rape me (Rape me) 

E        G   
Rape me (Rape me) 

A        C 
Rape me (Rape me) 

E        G   
Rape me (Rape me) 

A        C 
Rape me (Rape me) 

E        G   
Rape me (Rape me) 

A        C 
Rape me (Rape me) 

E        G   
Rape me (Rape me) 

A 
Rape me
Acordes para:
    Composição: Kurt CobainColaboração e revisão:
    • Daniel Mendes

    0 comentários

      mostrar mais comentários

      Conseguiu tocar?

      1tocaram0ainda não

      Grave um vídeo tocando Rape Me e mande pra gente!

      00:00 / 00:00
      outros vídeos desta música
      repetirqualidadeautomática
      Outro vídeos desta música
        00:00 / 00:00
        automática
        Capítulos
        • Tocando a música
        • Dicas iniciais
        • Afinação
        • Configuração equipamentos
        • Acordes da Introdução
        • Tocando Introdução
        • Ensinando Introdução
        • Dicas Primeira Parte
        • Tocando Primeira Parte
        • Ensinando Primeira Parte - Arpejo
        • Dicas Refrão
        • Tocando Refrão
        • Ensinando Refrão
        • Dicas Repetição
        • Acordes Interlúdio
        • Tocando Repetição - Final
        • Ensinando Interlúdio
        • Encerramento
        • Erros de gravação
        OK