Glória e Honra

Nívea Soares

Composição: Nívea Soares
                    | Refrao
G|------------------------------------------------------|
D|------------------------------------------------------|
A|-----3-----1-----6------1-----------------------------|
E|--1-----3-----1------3--------------------------------|

                    Intro

G|------------------------------------------------------|
D|------------------------------------------------------|
A|-----3-----1------------------------------------------|
E|--1-----3---------------------------------------------|   (X2)

                    
G|------------------------------------------------------|
D|------------------------------------------------------|
A|-----3-----1-----3-----1------------------------------|
E|--1-----3-----1-----3---------------------------------|

                    Pre-Refrao
                    
G|------------------------------------------------------|
D|------------------------------------------------------|
A|------------------3-----------------------------------|
E|--3--5--7---3--5--------------------------------------| 

                    || Refrao

G|------------------------------------------------------|
D|------------------------------------------------------|
A|-----3-----1-----6------1-----------------------------|
E|--1-----3-----1------3--------------------------------|

                    ||| Refrao


G|------------------------------------------------------|
D|------------------------------------------------------|
A|-----6-----1------------------------------------------|
E|--1-----3---------------------------------------------|   (X3)


                    Final

G|------------------------------------------------------|
D|------------------------------------------------------|
A|-----3-----3------------------------------------------|
E|--1-----1-----1---------------------------------------|
Página 1 / 1

Letras e título
Acordes e artista

resetar configurações
OK