Que Se Abram Os Céus

Nívea Soares

Composição: Ana Paula Valadão / Cody Carnes / Kari Jobe
PARTE 1:
E|-5----5---2--------5--0|
A|-------------5---------|     2X
D|-----------------------| 
G|-----------------------|

"Tu
És bem vindo aqui.."


"Deus fogo consumidor..."



E|-----------------------|
A|-5--7--9---------------|     2X
D|-----------------------|
G|-----------------------|

"Sopra em nós Espírito"


E|-----------------------|
A|-5--7--9---7-----------|     
D|-----------------------|
G|-----------------------|


"Te queremos, Deus"

______________________________________________
SOLO: 


E|-5-------------------------|
A|------5--4--5--4--4--2-----|     
D|---------------------------|
G|---------------------------|

______________________________________________

PARTE 2:

E|-5----5---2--------5---|
A|-------------5---------|     
D|-----------------------| 
G|-----------------------|


"Estou de pé 
Na presença do Rei..." 



E|-5----5---2--------5-0-|
A|-------------5---------|     
D|-----------------------| 
G|-----------------------|


"Estás aqui
No trono de louvor"





E|-----------------------|
A|-5--7--9---------------|     2X
D|-----------------------|
G|-----------------------|

"Sopra em nós Espírito"


E|-----------------------|
A|-5--7--9---7-----------|     
D|-----------------------|
G|-----------------------|


"Te queremos, Deus"


______________________________________________
SOLO: 


E|-5-------------------------|
A|------5--4--5--4--4--2-----|     
D|---------------------------|
G|---------------------------|

______________________________________________


FINAL:



E|-2---------2-----0-----|
A|-----5-----------------|     2X
D|-----------------------|
G|-----------------------|


"Que se abram os céus
O teu reino vem
Nossa fé está
No nosso Deus"



E|-2-2-2-2-2-2-2---------------5-5-5-5-5-5-5--0-0-0-0-0-5-5-|
A|---------------5-5-5-5-5-5-5------------------------------|     
D|----------------------------------------------------------|
G|----------------------------------------------------------|


"Que os céus fechados se abram
Teu reino venha mover
A nossa fé e esperança
Estão em Deus
Grande Deus"


TERMINO:



SOLO: 


E|-5-------------------------|
A|------5--4--5--4--4--2-----|     4X  
D|---------------------------|
G|---------------------------|



______________________________________________


TECLADO.
Página 1 / 1

Letras e título
Acordes e artista

resetar configurações
OK