Cifra Club

Aprenda

Eu Dancei

NDK

Cifra: Principal (violão e guitarra)
Quer fazer aulas de música com a gente? Responda essas perguntas
e nos ajude nesse projeto! →
tom: G
INTRO: (G Am C D)

RIFF 1
   G         Am       C       D          G        Am      C       D
e|----------------------------------------------------------------------|
B|----------------------------------------------------------------------|
G|-16-16--12/14-12-14-16--16--17-16-17---16-16-12/14-12-14-12--12-12-12-|
D|----------------------------------------------------------------------|
A|-14-14--10/12-10-12-14--14--15-14-15---14-14-10/12-10-12-10--10-10-10-|
E|----------------------------------------------------------------------|

   G        Am        C       D          G       Am        C      D         G  G
e|-------------------------------------------------------------------------------|
B|-------------------------------------------------------------------------------|
G|-16-16--12/14-12-14-16--16--17-16-17---16-16-12/14-12-14-12--12-14-12-14--12-12|
D|--------------------------------------------------------------------------12-12|
A|-14-14--10/12-10-12-14--14--15-14-15---14-14-10/12-10-12-10--10-12-10-12--10-10|
E|--------------------------------------------------------------------------10-10|

G                                D                                Cadd9
 
Hoje a noite é nossa o som já ta rolando e deixando aquela velha sensação 
de que não há limites entre o céu e o chão, céu e o chão
G                                D                                Cadd9

até o sol nascer até o dia amanhecer e depois que tudo se acabar
so vai restar nos desculpar e dizer que foi...

Em                D              C               

apenas um momento de pura distração

Em               D/F#                C    
a gente as vezes vive em busca de ilusão

F
Na na na na....

PONTE (junto com a parte : "apenas um moment de pura..." )
  Em     D      C                 Em      D/F#      C              F              G...
e|---------------------------------------------------------------------------------------|
B|---------------------------------------------------------------------------------------|
G|---------------------------------------------------------------------------------------|
D|---------------------------------------------------------------------------------------|
A|-----------------xx-3---2---------------------0-2-3-----2-----0------------------------|
E|----------------------------3----0-------2------------------------1-1-1-1---1---1/3~~~~|

[refrão]

G          Am           C            D
Nunca pensei que um dia isso fosse acontecer
G          Am         C         D         Em
mas o que sinto agora dificil até de dizer
             D                  C                  D
parecia uma garota inocente mas no fundo ela provou
Em                 D                C         D             G
que desse assunto era doutora, dava aulas de amor...e eu dancei!

( G  Am  C  D  ) 2X

RIFF 2
   G         Am       C       D          G        Am      C       D
e|----------------------------------------------------------------------|
B|----------------------------------------------------------------------|
G|-16-16--12/14-12-14-16--16--17-16-17---16-16-12/14-12-14-12--12-12-12-|
D|----------------------------------------------------------------------|
A|-14-14--10/12-10-12-14--14--15-14-15---14-14-10/12-10-12-10--10-10-10-|
E|----------------------------------------------------------------------|

   G        Am        C       D          G       Am        C      D         G~~~
e|-------------------------------------------------------------------------------|
B|-------------------------------------------------------------------------------|
G|-16-16--12/14-12-14-16--16--17-16-17---16-16-12/14-12-14-12--12-12-12-12--12~~~|
D|-------------------------------------------------------------------------------|
A|-14-14--10/12-10-12-14--14--15-14-15---14-14-10/12-10-12-10--10-10-10-10--10~~~|
E|-------------------------------------------------------------------------------|

G                           D                         Cadd9
Hoje eu posso até quebrar a cara, mas eu vou atrás da garota errada 
não quero viver entre o sim e o não sim e o não
G                           D                             Cadd9
até o sol nascer até o dia amanhecer e depois que a gente se tocar
so vai restar nos entregar e saber que foi...

Em                   D              C       
apenas um momento de pura inspiração

Em               D/F#                C    
nem sempre a gente vive apenas de ilusão

F
Na na na na....

PONTE (junto com a parte : "apenas um moment de pura..." )
  Em     D      C                 Em      D/F#      C              F              G...
e|---------------------------------------------------------------------------------------|
B|---------------------------------------------------------------------------------------|
G|---------------------------------------------------------------------------------------|
D|---------------------------------------------------------------------------------------|
A|-----------------xx-3---2---------------------0-2-3-----2-----0------------------------|
E|----------------------------3----0-------2------------------------1-1-1-1---1---1/3~~~~|

[refrão]

G          Am           C            D
Nunca pensei que um dia isso fosse acontecer
G          Am         C         D         Em
mas o que sinto agora dificil até de dizer
             D                  C                  D
parecia uma garota inocente mas no fundo ela provou
Em                 D                C         D             G
que desse assunto era doutora, dava aulas de amor...e eu dancei!

( G  Am  C  D  ) 2X
               
        Em                    D             Cadd9
mas foi apenas um momento de pura distração...


SOLO : ( G  Am  C  D  ) 2X   Em   D   C   D   Em   D/F#   D   G

solo
       G      Am     C     D         G         Am     C          D  
e|--------------------------------------------------------------------------|
B|-xx-12-12--13-13--15-15--15/13-13--13/12-12--13-12-13-12--13--15--17-17---|
G|--------------------------------------------------------------------------|
D|-xx--9--9--10-10--12-12--12/10-10--10/9---9--10--9-10--9--10--12--14-14---|
A|--------------------------------------------------------------------------|
E|--------------------------------------------------------------------------|

        Em              D                   C                   D
e|---------------------------------------------------------------------------------|
B|-17-17-17--15-15-15--13-13-13--12-12-12---13-13-13--12-12-12--10-10-10--8--8--8--|
G|---------------------------------------------------------------------------------|
D|-14-14-14--12-12-12--10-10-10---9--9--9---10-10-10---9--9--9---7--7--7--5--5--5--|
A|---------------------------------------------------------------------------------|
E|---------------------------------------------------------------------------------|
    
    Em         D/F#          D                                 G
e|--------------------------------------------------------------------------|
B|--8--8--8--8--8--8--8--8---10--10--10--10--10--10--10--10----8~~----------|
G|--------------------------------------------------------------------------|
D|--5--5--5--5--5--5--5--5----7---7---7---7---7---7---7---7----5~~----------|
A|--------------------------------------------------------------------------|
E|--------------------------------------------------------------------------|


[refrão] 2X

G          Am           C            D
Nunca pensei que um dia isso fosse acontecer
G          Am         C         D         Em
mas o que sinto agora dificil até de dizer
             D                  C                  D
parecia uma garota inocente mas no fundo ela provou
Em                 D                C         D             G
que desse assunto era doutora, dava aulas de amor...e eu dancei!  


FINAL : ( G  Am  C  D  )3X   G   C   D   G

RIFF 3
   G         Am       C       D          G        Am      C       D
e|----------------------------------------------------------------------|
B|----------------------------------------------------------------------|
G|-16-16--12/14-12-14-16--16--17-16-17---16-16-12/14-12-14-12--12-12-12-|
D|----------------------------------------------------------------------|
A|-14-14--10/12-10-12-14--14--15-14-15---14-14-10/12-10-12-10--10-10-10-|
E|----------------------------------------------------------------------|

   G        Am        C       D          G        C       D         G
e|--------------------------------------------------------------------------|
B|--------------------------------------------------------------------------|
G|-16-16--12/14-12-14-16--16--17-16-17---16~~~~~~~17--16--14--12----12------|
D|------------------------------------------------------------------12------|
A|-14-14--10/12-10-12-14--14--15-14-15---14~~~~~~~15--14--12--10----10------|
E|------------------------------------------------------------------10------|
Composição de Caio Vinicius / Marcos Bressane / Rick Roncoletta / Zé BJ
Colaboração e revisão:
  • Alexandre Silva
  • NDK
1.079 exibições
    • ½ Tom
    • A
    • Bb
    • B
    • C
    • Db
    • D
    • Eb
    • E
    • F
    • F#
    • G
    • Ab
  • Adicionar à lista

    0 comentários

    Ver todos os comentários

    Conseguiu tocar?

    0 Tocaram 0 Ainda não

    Grave um vídeo tocando Eu Dancei e nos envie!

    00:00 / 00:00
    Outros vídeos desta música
    Repetir Qualidade Automático
    Outros vídeos desta música
    00:00 / 00:00
    Automático

    Cifra Club Pro

    Aproveite o Cifra Club com benefícios exclusivos e sem anúncios
    Cifra Club Pro
    Aproveite o Cifra Club com benefícios exclusivos e sem anúncios
    OK