Cifra Club

Don't Call Me White

Nofx

Cifra: Principal (violão e guitarra)
Tom: D
intro #A 
E|---------------------------------------------|
B|---------------------------------------------|
G|---------------------------------------------|
D|---4-----7-----2------------4-----7-----2----|
A|---4-----7-----2------------4-----7-----2----|
E|---2-----5-----0------------2-----5-----0----|
intro #B
E|---------------------------------------------|
B|---------------------------------------------|
G|---------------9------------------------9----|
D|---4-----7-----9------------4-----7-----9----|
A|---4-----7-----7------------4-----7-----7----|
E|---2-----5------------------2-----5----------|

riff 1 #A
E|----------------------------------------------------------|
B|----------------------------------------------------------|
G|----------------------------------------------------------|
D|--------------------------------4-4-4-4---6-7-7-6----2----|
A|--------------------------------6-6-6-6---7-7-7-7----2<<<-|
E|-----------------------------------------------------0<<<-|

riff 1 #B 
E|----------------------------------------------------------|
B|----------------------------------------------------------|
G|----------------------------------------------------9-----|
D|--4-4-4-4-6-7-7-6-4-4-4-4-6-7-7-6-4-4-4-4-6-7-7-6---9-----|
A|--6-6-6-6-7-7-7-7-6-6-6-6-7-7-7-7-6-6-6-6-7-7-7-7---7-<<<-|
E|------------------------------------------------------<<<-|

verse #A&B X2 *=play 6X pre chorus *=play6X #=play 24X
E|------------------------| E|---------------------|
B|------------------------| B|---------------------|
G|--*---*-----------------| G|---------------------|
D|-4---7----6--6-7-7-6--6-| D|-4---7---4---2---7---|
A|-4---7----7--7-7-7-7--7-| A|-4---7---4---2---7-<-|
E|-2---5------------------| E|-2---5---2---0---5-<-|

chorus #B play every note 6X
E|---------------------------------------------------|
B|---------------------------------------------------|
G|---------------------------------------------------|
D|---4-----7-----2-----2-----4-----7-----2-----2-----|
A|---4-----7-----2-----2-----4-----7-----2-----2-<<<|
E|---2-----5-----0-----0-----2-----5-----0-----0-<<<|

chorus #B play every note 6X
E|---------------------------------------------------|
B|---------------------------------------------------|
G|---------------9-----9-----------------9-----9-----|
D|---4-----7-----9-----9-----4-----7-----9-----9-----|
A|---4-----7-----7-----7-----4-----7-----7-----7-<<<-|
E|---2-----5-----------------2-----5-------------<<<-|
exibições 16.552
Acordes para:
    Composição: Fat Mike Colaboração e revisão:
    • Leo Kehl

    0 comentários

    mostrar mais comentários

    Conseguiu tocar?

    0 tocaram 0 ainda não

    Grave um vídeo tocando Don't Call Me White e mande pra gente!

    00:00 / 00:00
    outros vídeos desta música
    repetir qualidade Automático
    Outros vídeos desta música
    00:00 / 00:00
    Automático
    OK