Cifra Club

Don't Know Why

Norah Jones

Cifra: Principal (violão e guitarra)
Tom: Bb (forma dos acordes no tom de G) Capotraste na 3ª casa
[Intro] G7M  G7  G5  C  G5+/B  Em7  A7  D2(7)

   G7M   G7  G5    C       G5+/B    Em7
E|-5---6-4---6---------3-------------------|
B|---3---------6---------7------7-6-----6--|
G|---------------3---3----------3-3-----3--|
D|---------------------------3--------5----|
A|-----------------6-------5---------------|
E|-6-------6------------------------3------|

   A7         D2(7)
E|------------------3----------------------|
B|-5-----5--------4---4--------------------|
G|-3-----3------5-------5------------------|
D|-----5---5--3-----------3----------------|
A|---3-------------------------------------|
E|-----------------------------------------|

[Primeira Estrofe]

   G7M   G7  G5    C       G5+/B    Em7
E|-5---6-4---6---------3-------------------|
B|---3---------6---------7------7-6-----6--|
G|---------------3---3----------3-3-----3--|
D|---------------------------3--------5----|
A|-----------------6-------5---------------|
E|-6-------6------------------------3------|

   A7       D2(7)  G7M
E|-----------------------------------------|
B|-5-----5--------4------------------------|
G|-3-----3------5--------3-----------------|
D|-----5---5--3--------3---3---------------|
A|---3-------------------------------------|
E|-------------------6---------------------| 

   G7M   G7  G5    C       G5+/B    Em7
E|-5---6-4---6---------3-------------------|
B|---3---------6---------7------7-6-----6--|
G|---------------3---3----------3-3-----3--|
D|---------------------------3--------5----|
A|-----------------6-------5---------------|
E|-6-------6------------------------3------|

   A7       D2(7)  G7M
E|-----------------------------------------|
B|-5-----5--------4------------------------|
G|-3-----3------5--------3-----------------|
D|-----5---5--3--------3---3---------------|
A|---3-------------------------------------|
E|-------------------6---------------------| 

   Em        A7     D2(7)  G7M
E|-----------------------------------------|
B|--------5-----5-------4------------------|
G|-----3--3-----3-----5--------3-----------|
D|---5--------5---5-3--------3---3---------|
A|----------3------------------------------|
E|-3-----------------------6---------------|

G7M           G7 G5 C       G5+/B
   I waited 'til I saw the sun
Em7            A7   D2(7)  G7M
I don't know why I didn't come
            G7  G5 C        G5+/B
I left you by the house of fun
Em7            A7   D2(7)  G7M
I don't know why I didn't come
Em7            A7   D2(7)  G7M
I don't know why I didn't come

[Segunda Estrofe]

G7M        G7   G5  C       G5+/B
   When I saw the break of day
Em7           A7        D2(7) G7M
I wished that I could fly   away
G7M          G7 G5  C       G5+/B
Instead of kneeling in the sand
Em7          A7       D2(7)  G7M
   Catching teardrops in my hand

[Refrão]

   Em        A7      D2(7)   
E|---------------------------3-----3--------|
B|-3-x-3---x---5---x---4-x-4-4-x-4-4--------|
G|-3-x-3---x---3---x---5-x-5-5-x-5-5--------|
D|-5-x-5-5-x---5-5-x-3-3-x-3-3-x-3-3--------|
A|---x-------3-3---x------------------------|
E|-3-x-3---x--------------------------------|

E|-----3------------------------------------|
B|-x-4-4------------------------------------|
G|-x-5-5------------------------------------|
D|-x-3-3------------------------------------|
A|------------------------------------------|
E|------------------------------------------|

Em            A7         D2(7)
My heart is drenched in wine
Em              A7     D2(7)
  But you'll be on my mind
 D2(7)/C  G/B  D2(7)
Fo_______re___ver

[Terceira Estrofe]

G7M    G7 G5      C        G5+/B
   Out across the endless sea
Em7      A7    D2(7) G7M
I would die in ecstasy
G7M    G7    G5   C      G5+/B
   But I'll be a bag of bones
Em7         A7       D2(7) G7M
   Driving down the road along

[Refrão]

Em            A7         D2(7)
My heart is drenched in wine
Em              A7     D2(7)
  But you'll be on my mind
 D2(7)/C  G/B  D2(7)
Fo_______re___ver

[Quarta Estrofe]

G7M           G7  G5      C   G5+/B
   Something has to make you run
Em7            A7   D2(7)  G7M
I don't know why I didn't come
G7M       G7    G5     C   G5+/B
I feel as empty as a drum

Em7            A7   D2(7)  G7M
I don't know why I didn't come
Em7            A7   D2(7)  G7M
I don't know why I didn't come
Em7            A7   D2(7)  G7M
I don't know why I didn't come
exibições 254.392
Acordes para:
    Composição: Jesse Harris Colaboração e revisão:

    0 comentários

    mostrar mais comentários

    Conseguiu tocar?

    14 tocaram 2 ainda não

    Grave um vídeo tocando Don't Know Why e mande pra gente!

    00:00 / 00:00
    outros vídeos desta música
    repetir qualidade Automático
    Outros vídeos desta música
    00:00 / 00:00
    Automático
    Capítulos
    • Início
    • Tocando a música
    • Dicas iniciais e acordes da música
    • Ensinando Introdução
    • Ensinando Estrofes
    • Acordes do Refrão
    • Tocando Refrão - Estrofes
    • Ensinando Refrão
    • Encerramento
    • Tocando Introdução - Estrofes
    OK