Cifra Club

Quando Assim

Núria Mallena

Cifra: Principal
exibições 38.574
Tom: G
Intro: G  D/F#  Em7  C9  D9

            G                        D/F#
E|-----------------------------------------------------------|
B|------3------3---3------3-------3------3----3-----4--------|
G|------0---0------0---0-----0----0---0-------0--0-----0-----|
D|------5----------5--------------4-----------4--------------|
A|-----------------------------------------------------------|
E|-----------------------------------------------------------|
           Em7                     C9      D9
E|-----------------------------------------------------------|
B|-----3-----3---3-----3-------3----3--3----3----------------|
G|-----0--0------0--0----0-----0--0----2--2------------------|
D|-----2---------2-------------3-------0---------------------|
A|-----------------------------------------------------------|
E|-----------------------------------------------------------|

G               G/F#
Quando eu era espera,
      Em7        C9          D9
Nada era, nem chovia, nem fazia;
G              G/F#        Em7
Só senti que a calma, não acalma
       C9   D9
Quando só há solidão.
G                G/F#
Quando eu era estrela
       Em7        C9             D9
Era inteira na mentira que eu dizia
G             G/F#
Ser o que não era,
      Em7         C9    D9
Convencia, dentro da minha ilusão
G            G/F#
Quando eu fui nada,
        Em7         C9    D9
Faltou nada, tudo pronto pra escrever

C9            D9
Eu não sabia buscar,
                Em7
Foi quando apareceu,
                 D9
O que quis inventar,
                 C9             
Pra preencher o meu mundo particular,
                 Em7
No peito que era eu
                 C9
No seu mundo não há
                  Am
Mais nada que não eu,
 Am7                   D7           G
Já sei dizer que o amor pode acordar.

Intro: G  G/F#  Em7  C9  D9
Acordes para:

    0 comentários

      mostrar mais comentários

      Conseguiu tocar?

      15tocaram0ainda não

      Grave um vídeo tocando Quando Assim e mande pra gente!

      00:00 / 00:00
      outros vídeos desta música
      repetirqualidadeautomática
      Outro vídeos desta música
        00:00 / 00:00
        automática
        OK