Cifra Club

Além de Mim

Nx Zero

Cifra: Principal
exibições 713.523
Tom: E
(afinação é 1/2 tom abaixo)

(intro)
E|------------------------------------------------------------------------------|
B|5-5-5-5-5-9-9-9-9-9-7-7-7-7-7-5-7-7-7-7-7-10-10-10-10-10-9-9-9-9-9-7-9-9-9-9-9|
G|------------------------------------------------------------------------------| riff 1
D|------------------------------------------------------------------------------|
A|------------------------------------------------------------------------------|
E|------------------------------------------------------------------------------|

(quando entrar a bateria)

E|------------------------------------------------------------------------------------------|
B|------------------------------------------------------------------------------------------|
G|9-9-9-9-9--13-13-13-13--11-11-11-11--9--13-13-13-13--16-16-16-16--15-15-15-15-13-13-13-13-| riff 2
D|x-x-x-x-x--x--x--x--x---x--x--x--x---x--x--x--x--x---x--x--x---x--x--x--x--x--x--x--x--x--|
A|7-7-7-7-7--11-11-11-11--9--9--9--9---7--11-11-11-11--14-14-14-14--13-13-13-13-11-11-11-11-|
E|------------------------------------------------------------------------------------------|

E|----------------------------------------------------|
B|----------------------------------------------------|
G|14-14-14-14-14-14-14-14--16-16-16-16-16-16-16-16----|  riff 3
D|x--x--x--x--x--x--x--x---x--x--x--x--x--x--x--x-----|
A|12-12-12-12-12-12-12-12--14-14-14-14-14-14-14-14----|
E|----------------------------------------------------|

A5
 Não olhe para mim fingindo não saber
E5
 Quem realmente sou
A5
 Se nada está tão bem só estou perdendo tempo
E5
 Só me responda agora

  B5
Eu te fiz feliz (eu te fiz feliz)
  C#m5
Fiz feliz (eu te fiz feliz)

[Eu te fiz feliz (eu te fiz feliz)](2x)
E|-------------|
B|-------------|
G|---9-8-------|
D|-------9-----|
A|-------------|
E|-------------|

  A5
Todo esse tempo que esteve aqui
  B5
Eu te fiz feliz (eu te fiz feliz)
  C#m
Fiz feliz (eu te fiz feliz)

[Eu te fiz feliz (eu te fiz feliz)](2x)
E|-------------|
B|-------------|
G|---9-8-------|
D|-------9-----|
A|-------------|
E|-------------|

A5
 Responda

E5                  B5                 C#m5
 Tantas vezes você precisou e eu não pude ver
A5
 Nada além de mim
E5                 B5                  C#m5
 E eu não deveria me explicar nem voltar atrás
        A5
 Pra te convencer que foi só no início

(repete riff 2 e rif 3)

A5
 Não fale de nós dois como se fosse fácil
E5
 Jogar tudo pro alto
A5
  Se Nada esta tão bem, só estou perdendo tempo
E5
 Só me responda agora

  B5
Eu te fiz feliz (eu te fiz feliz)
  C#m5
Fiz feliz (eu te fiz feliz)

A5
 Quando Ninguém estava aqui

  B5
Eu te fiz feliz (eu te fiz feliz)
  C#m5
Fiz feliz (eu te fiz feliz)
A5
 Se lembra?

E5                  B5                 C#m5
 Tantas vezes você precisou e eu não pude ver
A5
 Nada além de mim
E5                 B5                  C#m5
 E eu não deveria me explicar nem voltar atrás
        A5
 Pra te convencer que foi só no início

(riff 4)
E|---------------------------------------------------|
B|---------------------------------------------------|
G|-9-9-9-9--9-9-9-9--13-13--9-9-9-9--9-9-9-9---11----|
D|-x-x-x-x--x-x-x-x--x--x---x-x-x-x--x-x-x-x---x-----|
A|-7-7-7-7--7-7-7-7--11-11--7-7-7-7--7-7-7-7---9-----|
E|---------------------------------------------------|

(riff 5)20 vezes cada
E|------------|
B|9-9-9-------|
G|-9-9--------|
D|------------|
A|------------|
E|------------|

E|------------|
B|7-7-7-------|
G|-9-9--------|
D|------------|
A|------------|
E|------------|

E|------------|
B|10-10-10----|
G|--9--9------|
D|------------|
A|------------|
E|------------|

E|------------|
B|7-7-7-------|
G|-9-9--------|
D|------------|
A|------------|
E|------------|

Eu nunca mudei, eu só não estou igual ao que conhece
Não tente me entender

(riff 6)
E|---------------------------------|
B|-16-16-16-16-16-16-16-16-16-16---|
G|---------------------------------|
D|---------------------------------|
A|---------------------------------|
E|---------------------------------|

E|---------------------------------|
B|-15-15-15-15-15-15-15-15-15-15---|
G|---------------------------------|
D|---------------------------------|
A|---------------------------------|
E|---------------------------------|

E|---------------------------------|
B|-12-12-12-12-12-12-12-12-12-12---|
G|---------------------------------|
D|---------------------------------|
A|---------------------------------|
E|---------------------------------|

E|---------------------------------|
B|-9--9--9--9--9--9--9--9--9--9----|
G|---------------------------------|
D|---------------------------------|
A|---------------------------------|
E|---------------------------------|

E|---------------------------------|
B|-8--8--8--8--8--8--8--8--8--8----|
G|---------------------------------|
D|---------------------------------|
A|---------------------------------|
E|---------------------------------|

E|---------------------------------|
B|-9--9--9--9--9--9--9--9--9--9----|
G|---------------------------------|
D|---------------------------------|
A|---------------------------------|
E|---------------------------------|

E|---------------------------------|
B|-12-12-12-12-12-12-12-12-12-12---|
G|---------------------------------|
D|---------------------------------|
A|---------------------------------|
E|---------------------------------|

E|---------------------------------|
B|-15-15-15-15-15-15-15-15-15-15---|
G|---------------------------------|
D|---------------------------------|
A|---------------------------------|
E|---------------------------------|

E|---------------------------------|
B|-16-16-16-16-16-16-16-16-16-16---|
G|---------------------------------|
D|---------------------------------|
A|---------------------------------|
E|---------------------------------|

 Tente ver além do que passou
 E Por favor responda

E5                  B5                 C#m5
 Tantas vezes você precisou e eu não pude ver
A5
 Nada além de mim
E5                 B5                  C#m5
 E eu não deveria me explicar nem voltar atrás
        A5
 Pra te convencer que foi só no início

0 comentários

    mostrar mais comentários

    Conseguiu tocar?

    18tocaram1ainda não

    Grave um vídeo tocando Além de Mim e mande pra gente!

    00:00 / 00:00
    outros vídeos desta música
    repetirqualidadeautomática
    Outro vídeos desta música
      00:00 / 00:00
      automática
      OK