Cifra Club

Aprenda

Além de Mim

Nx Zero

Cifra: Principal (violão e guitarra)
tom: Eb (forma dos acordes no tom de E) Afinação: Eb Ab Db Gb Bb Eb
[Intro]

Riff 1

E|-------------------------------------------|
B|-5-5-5-5-5-9-9-9-9-9-7-7-7-7-7-5-7-7-7-7-7-|
G|-------------------------------------------|
D|-------------------------------------------|
A|-------------------------------------------|
E|-------------------------------------------|

E|-------------------------------------------|
B|-10-10-10-10-10-9-9-9-9-9-7-9-9-9-9-9------|
G|-------------------------------------------|
D|-------------------------------------------|
A|-------------------------------------------|
E|-------------------------------------------|

Riff 2

E|----------------------------------------------------|
B|----------------------------------------------------|
G|-9-9-9-9-9--13-13-13-13--11-11-9-9--11-11-11-11-----|
D|----------------------------------------------------|
A|-7-7-7-7-7--11-11-11-11--9--9--7-7--9--9--9--9------|
E|----------------------------------------------------|

E|---------------------------------------------------------------|
B|---------------------------------------------------------------|
G|-14-14-14-14-13-13-11-11---13-13-13-13-13-13-16-16-16-16-16-16-|
D|---------------------------------------------------------------|
A|-12-12-12-12-11-11-9--9----11-11-11-11-11-11-14-14-14-14-14-14-|
E|---------------------------------------------------------------|

[Primeira Parte]

A5                                 E5
 Não olhe para mim fingindo não saber
 Quem realmente sou
A5
 Se nada está tão bem só estou perdendo tempo
E5
 Só me responda agora

[Pré-Refrão]

       B5
Eu te fiz feliz (eu te fiz feliz)
 C#m5
Fiz feliz (eu te fiz feliz)
 A5
Todo esse tempo que esteve aqui
       B5
Eu te fiz feliz (eu te fiz feliz)
 C#m
Fiz feliz (eu te fiz feliz)
    A5
Responda

[Refrão]

E5                   B5               C#5
 Tantas vezes você precisou e eu não pude ver
A5
 Nada além de mim
E5                 B5                 C#5
 E eu não deveria me explicar nem voltar atrás
         A5
 Pra te convencer que foi só no início

Riff 2

E|----------------------------------------------------|
B|----------------------------------------------------|
G|-9-9-9-9-9--13-13-13-13--11-11-9-9--11-11-11-11-----|
D|----------------------------------------------------|
A|-7-7-7-7-7--11-11-11-11--9--9--7-7--9--9--9--9------|
E|----------------------------------------------------|

E|---------------------------------------------------------------|
B|---------------------------------------------------------------|
G|-14-14-14-14-13-13-11-11---13-13-13-13-13-13-16-16-16-16-16-16-|
D|---------------------------------------------------------------|
A|-12-12-12-12-11-11-9--9----11-11-11-11-11-11-14-14-14-14-14-14-|
E|---------------------------------------------------------------|

[Segunda Parte]

A5                                      E5
  Não fale de nós dois como se fosse fácil
  Jogar tudo pro alto
A5
  Se Nada esta tão bem, só estou perdendo tempo
E5
 Só me responda agora

[Pré-Refrão]

       B5
Eu te fiz feliz (eu te fiz feliz)
 C#5
Fiz feliz (eu te fiz feliz)
  A5
Quando Ninguém estava aqui
       B5
Eu te fiz feliz (eu te fiz feliz)
 C#5
Fiz feliz (eu te fiz feliz)
    A5
Se lembra?

[Refrão]

E5                   B5               C#5
 Tantas vezes você precisou e eu não pude ver
A5
 Nada além de mim
E5                 B5                 C#5
 E eu não deveria me explicar nem voltar atrás
        A5
Pra te convencer que foi só no início

( E5 )

[Ponte]

E5            B5                     A5
  Eu nunca mudei, eu só não estou igual ao que conhece
F#
  Não tente me entender
 E5         B5            A5
Tente ver além do que passou
   A5    B5     C#5  D#5
E Por favor responda

[Refrão]

E5                   B5               C#5
 Tantas vezes você precisou e eu não pude ver
A5
 Nada além de mim
E5                 B5                 C#5
 E eu não deveria me explicar nem voltar atrás
        A5
Pra te convencer que foi só no início
Composição de Di Ferrero / Fi Ricardo / Gee Rocha
730.069 exibições
  • Simplificar cifra
    • ½ Tom
    • A
    • Bb
    • B
    • C
    • Db
    • D
    • Eb
    • E
    • F
    • F#
    • G
    • Ab
  • Adicionar à lista

    0 comentários

    Ver todos os comentários

    Conseguiu tocar?

    22 Tocaram 1 Ainda não

    Grave um vídeo tocando Além de Mim e nos envie!

    00:00 / 00:00
    Outros vídeos desta música
    Repetir Qualidade Automático
    Outros vídeos desta música
    00:00 / 00:00
    Automático

    Cifra Club Pro

    Aproveite o Cifra Club com benefícios exclusivos e sem anúncios
    Cifra Club Pro
    Aproveite o Cifra Club com benefícios exclusivos e sem anúncios
    OK