Cifra Club

Apenas um olhar

Nx Zero

Cifra: Principal
exibições 409.723
Tom: E
(intro)

Apenas um olhar mistério...

E |----------------
B |--5--5--5--5--5-
G |--4--4--4--4--4-
D |--2--1--2--2--2-
A |--0--0--4-------
E |-----------4--4-   (8x)

(entra a bateria)
E |-----------------------------------------------
B |-9--7--9--7--9--7--9--7--9--7--9--7--9--7--9--7
G |-----------------------------------------------
D |-----------------------------------------------
A |-----------------------------------------------
E |-----------------------------------------------

(solo) C#m F# G# A G# A G# F# E D# E C#
  (base) C# A B
E |--------------------------------------------------------------------------------------
B |--------------------------------------------------------------------------------------
G |--6-6-6-6-6-8-9-11-9--14--14--14--14--14--13--11--13--11-6-6-6-6-6-8-9-11-9-14-14-14-14-14-13
D |--x-x-x-x-x-x-x-x--x--x----x---x--x--x-x--x---x---x---x--x-x-x-x-x-x-x-x--x-x--x--x--x---x-x
A |--4-4-4-4-4-6-7-9--7--12--12--12--12--12--11--9---11--9--4-4-4-4-4-6-7-9--7-12-12-12-12-12-11
E |--------------------------------------------------------------------------------------

  (base) C#m A B
E |---------------------------------
B |---------------------------------
G |-10--9--7--9--10--9--7-----------
D |---10-10-10-10--10-10-10----------- 4x
A |---------------------------------
E |---------------------------------

C#5             (E5 B5)C#5                 A5
Porque que você esta fugindo de mim com nossas fotos rasgadas?

E |---------------------------------
B |---------------------------------
G |---------------------------------
D |---------------------------------  5x
A |-8-0-7-0-5-0-7-0-9-0-7-0-5-------
E |---------------------------------

C#5               A5    B5
Se for pra ser   assim será.

B |-9-10---9-12--9-10--9-12-12-10-10--10-9-10-9-10---
G |--9------9-----9-----9---9--9--9----9-9-9--9-9---
  C#5        A5
Apenas um olhar   mistério...
  E5            B5
Confuso de entender
    C#5         A5               E5          B5       ( B5 ) (7x)
De que me vale ser sincero se o destino me afasta de você ?!
C#5     A5           E5             B5    B5   C#5
Agora é pra valer   esqueça o que eu disse para você!
           A5      E5             B5
Já não tem sido fácil...    uô uô

(alternando entre as guitarras)
(guitarra 1 - Gee Rocha)
(repete uma vez   a primeira parte do Gee)
E |--------------------------------------------------
B |--------------------------------------------------
G |--6-6-6-6-6-6-6-----------------4-4-4-4-4-4-4-4---
D |--x-x-x-x-x-x-x-----------------x-x-x-x-x-x-x-x---
A |--4-4-4-4-4-4-4-----------------2-2-2-2-2-2-2-2---
E |--------------------------------------------------

(guitarra 2 - Fi e Ricardo)
E |----------------------------------------------------------------------------------
B |----------------------------------------------------------------------------------
G |--11-11-11-11-11-11-11------------------------------------------------------------
D |--x--x--x--x--x--x--x----------------4-4-4-4-4-4-4---6-6-6-6-6-6-6-7-7-7-7-7-7-7--
A |--9--9--9--9--9--9--9----------------4-4-4-4-4-4-4---6-6-6-6-6-6-6-7-7-7-7-7-7-7--
E |-------------------------------------2-2-2-2-2-2-2---4-4-4-4-4-4-4-5-5-5-5-5-5-5--

(só o baixo) E  E  E  B  B  B
C#  C#  C#  G#  G#  G#
E  E  E  B  B  B  C#  C#  C# (2x) A E ( C# )

Apenas em um olhar espero desvendar os seus mistérios   tentar
                                        C#
Entender eu mesmo   tentar entender... você!

         A5          E5                 B5          C#
Agora é pra valer   esqueça tudo que eu disse para voce!
           A5     E5            B5
Já não tem sido fácil...    uô uô uô uôo

* 4x
D |-9-11-9---9-11-9----
A |-------11-------11--

C#5               E5 B5              F#5        G#5  A5     (C#5 E5 B5 F#5 G#5 A5)2X
   eu odeio saber que as coisas não são como deveriam ser.

(Gee e Fi revesam - repete uma vez )

(Gee)
E |-------------------fi-------------------
B |-------------------fi-------------------
G |--6-6-6-6-6-6-6----fi----4-4-4-4-4-4-4-4
D |--x-x-x-x-x-x-x----fi----x-x-x-x-x-x-x-x
A |--4-4-4-4-4-4-4----fi----2-2-2-2-2-2-2-2
E |-------------------fi-------------------

(Fi)
(guitarra 2 - Fi - Ricardo)
E |----------------------gee|---------------------------------------------
B |----------------------gee|---------------------------------------------
G |-11-11-11-11-11-11-11-gee|---------------------------------------------
D |-x--x--x--x--x--x--x--gee|--4-4-4-4-4-4-4---6-6-6-6-6-6-6-7-7-7-7-7-7-7
A |-9--9--9--9--9--9--9--gee|--4-4-4-4-4-4-4---6-6-6-6-6-6-6-7-7-7-7-7-7-7
E |----------------------gee|--2-2-2-2-2-2-2---4-4-4-4-4-4-4-5-5-5-5-5-5-5

G |-6-6-6-6-6-8-9-11-9-14-14-14-14-14-13---
D| x-x-x-x-x-x-x-x--x-x---x--x--x-x--x----
A |-4-4-4-4-4-6-7-9--7-12-12-12-12-12-11---

C#     (termina com E5 na 2ª casa no palm mute)
Acordes para:

    0 comentários

      mostrar mais comentários

      Conseguiu tocar?

      4tocaram0ainda não

      Grave um vídeo tocando Apenas um olhar e mande pra gente!

      00:00 / 00:00
      outros vídeos desta música
      repetirqualidadeautomática
      Outro vídeos desta música
        00:00 / 00:00
        automática
        OK