Cifra Club

Apenas Um Olhar

Nx Zero

Cifra: Principal (violão e guitarra)
tom: C#m
[Intro] A9  C#m7/B  C#m7  C#m7/G#
        A9  C#m7/B  C#m7
        A9  C#m7/B  C#m7  C#m7/G#
        A9  C#m7/B  C#m7

   A9  C#m7/B  C#m7  C#m7/G#
E|------------------------------------------|
B|-5-x-5-5-x---5-5-x-5-5-5------------------|
G|-4-x-4-4-x---4-4-x-4-4-4------------------|
D|-2-x-2-2-x---2-2-x-2-2-2------------------|
A|-0-x-2-2-x---4-4-x------------------------|
E|-------------------4-4-4------------------|
   ↓   ↑ ↑     ↑ ↑   ↑ ↑ ↓

   A9  C#m7/B  C#m7  
E|------------------------------------------|
B|-5-x-5-5-x---5-5-x-5-5-5------------------|
G|-4-x-4-4-x---4-4-x-4-4-4------------------|
D|-2-x-2-2-x---2-2-x-2-2-2------------------|
A|-0-x-2-2-x---4-4-x-4-4-4------------------|
E|------------------------------------------|
   ↓   ↑ ↑     ↑ ↑   ↑ ↑ ↓

[Refrão]

  A9   C#m7/B  C#m7    C#m7/G#
Apenas um   olhar, mistério
    A9     C#m7/B  C#m7
Confuso de e__ntender
     A9    C#m7/B  C#m7   C#m7/G#
De que me vale    ser sincero
         A9   C#m7/B  C#m7 
Se o destino me     afasta 
      C#5
De você?

( C#5  A5  B5 )
( C#5  A5  B5 )
( C#5  A5  B5 )
( C#5  A5  B5 )

E|------------------------------------------|
B|------------------------------------------|
G|-6-6-6-6-8-9-11-9-11----------------------|
D|------------------------------------------|
A|-4-4-4-4-6-7-9--7-9-----------------------|
E|------------------------------------------|

E|------------------------------------------|
B|------------------------------------------|
G|-14-14-13-11-9-11-9-8-9-------------------|
D|------------------------------------------|
A|-12-12-11-9--7-9--7-6-7-------------------|
E|------------------------------------------|

E|------------------------------------------|
B|------------------------------------------|
G|-14-14-14-14-14--13-13-13-13-13-13--------|
D|------------------------------------------|
A|-12-12-12-12-12--11-11-11-11-11-11--------|
E|------------------------------------------|

[Primeira Parte]

C#5
   Por que você está
A5                        B5
   Fugindo de mim com nossas fotos rasgadas?
C#5                   A5     B5
    Se for pra ser assim, será

[Refrão]

E|------------------------------------------|
B|-9---9---10--9---9---12-------------------|
G|---9---9-------9---9----------------------|
D|------------------------------------------|
A|------------------------------------------|
E|------------------------------------------|

E|------------------------------------------|
B|-9---9---10--9---9---12-------------------|
G|---9---9-------9---9----------------------|
D|------------------------------------------|
A|------------------------------------------|
E|------------------------------------------|

E|------------------------------------------|
B|-9-10-9-10-9-10\--------------------------|
G|-9-9--9-9--9-9----------------------------|
D|------------------------------------------|
A|------------------------------------------|
E|------------------------------------------|

  C#5
Apenas um olhar, mistério
    A5           B5
Confuso de entender
     C#5
De que me vale ser sincero
         A5       B5
Se o destino me afasta... de você?

[Segunda Parte]

C#5           A5
    Agora é pra valer
    E5            B5      
Esqueça o que eu disse para você!

(Ououoooo)
C#5            A5     E5      B5
   Já não tem sido fácil...uouooouoooo

E|------------------------------------------|
B|------------------------------------------|
G|-6-6-6-6-6-6-6--6-6-6-6-6-6-6-------------|
D|------------------------------------------|
A|-4-4-4-4-4-4-4--4-4-4-4-4-4-4-------------|
E|------------------------------------------|

E|------------------------------------------|
B|------------------------------------------|
G|-8-8-8-8-8-8-8--8-8-8-8-8-8-8-------------|
D|------------------------------------------|
A|-6-6-6-6-6-6-6--6-6-6-6-6-6-6-------------|
E|------------------------------------------|

E|------------------------------------------|
B|------------------------------------------|
G|-9-9-9-9-9-9-9--9-9-9-9-9-9-9-------------|
D|------------------------------------------|
A|-7-7-7-7-7-7-7--7-7-7-7-7-7-7-------------|
E|------------------------------------------|

E|------------------------------------------|
B|------------------------------------------|
G|-11-11-11-11-11-11-11-11-11-11-11-11-11-11|
D|------------------------------------------|
A|-9--9--9--9--9--9--9--9--9--9--9--9--9--9-|
E|------------------------------------------|

( C#5  A5  B5 )
( C#5  A5  B5 )
( C#5  A5  B5 )
( C#5  A5  B5 )

[Refrão]

  A9   C#m7/B  C#m7    C#m7/G#
Apenas um   olhar, mistério
    A9     C#m7/B  C#m7
Confuso de e__ntender
 A9    C#m7/B  C#m7   C#m7/G#  
Tentar e__ntender eu mesmo
 A9    C#m7/B  C#m7
Tentar e__ntender você

[Segunda Parte]

C#5           A5
    Agora é pra valer
    E5            B5      
Esqueça o que eu disse para você!

(Ououoooo)
C#5            A5     E5      B5
   Já não tem sido fácil...uouooouoooo

C#5             A5
    Eu odeio saber
                   E5
Que as coisas não são
               B5
Como deveriam ser

[Final] C#5  A5  E5  B5 
        C#5  A5  B5
        C#5  A5  B5  C#5
00:00 / 00:00
Outros vídeos desta música
Repetir
Outros vídeos desta música
Composição de Dani Weksler / Fi Ricardo / Gee Rocha / Yuri Nishida
415.442 exibições
    • ½ Tom
    • Am
    • Bbm
    • Bm
    • Cm
    • C#m
    • Dm
    • Ebm
    • Em
    • Fm
    • F#m
    • Gm
    • G#m
  • Adicionar à lista

    0 comentários

    Ver todos os comentários

    Conseguiu tocar?

    5 Tocaram 0 Ainda não

    Grave um vídeo tocando Apenas Um Olhar e nos envie!

    Entre para oCifra Club PRO

    Tenha acesso a benefícios exclusivos no App e no Site

    • Chega de anúncios

    • Prioridade de compra em lançamentos

    • Mais recursos no app do Afinador

    • Atendimento Prioritário

    • Descontos nos produtos Cifra Club

    • Ajude a produzir mais conteúdo

    00:00 / 00:00

    Cifra Club Pro

    Aproveite o Cifra Club com benefícios exclusivos e sem anúncios
    Cifra Club Pro
    Aproveite o Cifra Club com benefícios exclusivos e sem anúncios
    OK