Enviar cifraEntrar

Bem Ou Mal / Além Das Palavras

Nx Zero

Cifra: Principal
exibições 7.472
Tom: G#
Intro:

G#5 (2x)

(Abafado) (Gee)

E|---------------------------------------|
B|---------------------------------------|
G|----6-8-6---6-8-6---4-6-4---4-6-4------|  (4x)
D|--6-------6-------4-------4------------|
A|---------------------------------------|
E|---------------------------------------|


(Fi)

E|---------------------------------------|
B|----7-9-7------------------------------|
G|--8-------8-6-4-----4---4---4----------|
D|----------------4-6---6---6---6-7------|
A|---------------------------------------|
E|---------------------------------------|


E|---------------------------------------|
B|-----------------------------9-7-6-9---|
G|------------4-8-11----/13b15-----------|
D|--6-6-6-7r6--------11------------------|
A|---------------------------------------|
E|---------------------------------------|


E|---------------------------------------|
B|--12-13-17-16-11-12-14-----------------|
G|---------------------------------------|
D|---------------------------------------|
A|---------------------------------------|
E|---------------------------------------|


G#5 (2x)  B5 C#5


E|---------------------------------------|
B|--9-9-9-9-9-9-9-9-9-12-12--------------|
G|---------------------------------------|
D|---------------------------------------|
A|---------------------------------------|
E|---------------------------------------|


E|---------------------------------------|
B|--9-9-9-9-9-9-9-9-9-12-14--------------|
G|---------------------------------------|
D|---------------------------------------|
A|---------------------------------------|
E|---------------------------------------|


E|---------------------------------------|
B|--12-12-12-12-12-12-11-11-11-11-11-11-9|
G|---------------------------------------|
D|---------------------------------------|
A|---------------------------------------|
E|---------------------------------------|



Riff: B5 C#5 B5 G#5 G#5 B5 C#5 B5

(Abafado)
G#5           Bb5 B5
O começo e o fim
             D#5 E5
Podem ser iguais,
                  C#5       F#5
Depende de quem vai achar uma resposta

( G#5 Bb5 B5 D#5 E5 C#5 F#5 )

(Dedilhado Abafado)
Gm G#4
A inveja que mata

Não me afeta mais

Pois o que conquistei

Tem o direito de ser meu

E5 (Deixa soar)
Entre o bem e o mal

A escolha certa

Base Baixo ( G# E5 F5 C#5 )
Oitavada
B           C#    B
E pouco tempo pode ser demais

Pra quem sabe o que quer
            C#
Pra quem respeita a vida e a si mesmo
B            C#      B
O tempo muda sempre cada vez mais

E dentro de você
         C#
Existe o bem e o mal e a escolha certa

Base Baixo ( G#5 Bb5 B5 D#5 E5 C#5 F#5 )

(Dedilhado Aabafado)
Gm G#4
A vida é curta demais

Pra sempre reclamar

E não correr atrás

Dos sonhos que almeja

(Cavalgada)
G#5                   Bb5 B5
Rio de Janeiro faz barulho rs
              D#5 E5
Não me afeta mais
                    C#5
Pois o que conquistei
          F#5
Tem o direito de ser meu

E5 (Deixa soar)
Entre o bem e o mal

A escolha certa

Base Baixo ( G# E5 F5 C#5 )
(Oitavada)
B           C#    B
E pouco tempo pode ser demais

Pra quem sabe o que quer
            C#
Pra quem respeita a vida e a si mesmo
B            C#      B
O tempo muda sempre cada vez mais

E dentro de você
         C#
Existe o bem e o mal e a escolha certa
      E5                  F#5
Então tá chega mais Túlio Dek!


G5 B5 E5 C#5
Então faça a sua escolha logo e se decida,
Vai querer o mal ou bem pra sua vida?
O Tempo é muito curto, não pode demorar
Escolha qual caminho você vai querer trilhar

E|--------------------14---14----14----14|
B|---------------------------------------|
G|--8/13-8/15-8/16-16---16----16----16---|
D|---------------------------------------|
A|---------------------------------------|
E|---------------------------------------|



Tudo nessa vida é merecimento
O que a brisa leva, volta com o vento
Se não se decidiu, então corra atrás
Entre o bem e o mal, eu fico com a paz.

Base Baixo ( G# E5 F5 C#5 )
Oitavada
B           C#    B
E pouco tempo pode ser demais

Pra quem sabe o que quer
            C#
Pra quem respeita a vida e a si mesmo
B            C#      B
O tempo muda sempre cada vez mais

E dentro de você
         C#
Existe o bem e o mal e a escolha certa

G#5 B5 E5 C#5 (2x) Entra no clima desse som aí
G#5 B5 E5

Levanta a mão, põe ela pra frente (2x)
G# F# E F# (Delay)
Sei que quando canto você pode me escutar
Com esperança me sinto vivo
A bola é pra frente, o pensamento é positivo
O tempo vai nos dizer quem é quem
E é assim que a gente vai levando
Caindo, mas sempre levantando
O destino me trouxe até aqui
Chorando, mas sempre melhorando
Buscando, e sempre encontrando
Nem tudo na vida tem um porque

G#5 B5 E5 C#5
E concluindo que a vida é uma graça
E que nessa vida sempre tudo passa
G#5 B5 E5 F#5
G#5 B5 E5 C#5
E o que sinto vai além das palavras
G#5 B5 E5 F#5
A vida nos leva onde temos que ir


( G#5 B5 E5 F#5 ) (2x)
E|--11b13r11-(5x)-14b16r14-(5x)-16b18r16-(10x)|
B|--------------------------------------------|
G|--------------------------------------------|
D|--------------------------------------------|
A|--------------------------------------------|
E|--------------------------------------------|


E|--------------------------------------------|
B|--------------------------------------------|
G|--8-8-8-8-8-8-8-8--11-11-11-11-11-11-11-11--|
D|--6-6-6-6-6-6-6-6--9--9--9--9--9--9--9--9---|
A|--------------------------------------------|
E|--------------------------------------------|


E|--------------------------------------------|
B|--------------------------------------------|
G|--16-16-16-16-16-16-16-16-18-18-18-18-18-18-|
D|--14-14-14-14-14-14-14-14-16-16-16-16-16-16-|
A|--------------------------------------------|
E|--------------------------------------------|


E|---------------------------------------|
B|---------------------------------------|
G|---------------------------------------|
D|---------------------------------------| (3x)
A|--9-11-14-14h16-14-13-13h14-13-11-9----|
E|---------------------------------------|


  • 1
  • 2
  • 3
  • 4
  • 5
  • 6
  • 7
  • 8
  • 9
  • 10
  • 11
  • 12
    Acordes para:
      Composição: Túlio DekColaboração e revisão:
      • Mateus Soares

      0 comentários

        mostrar mais comentários

        Conseguiu tocar?

        2tocaram0ainda não

        Grave um vídeo tocando Bem Ou Mal / Além Das Palavras e mande pra gente!

        00:00 / 00:00
        outros vídeos desta música
        repetirqualidadeautomática
        • automática
        Outro vídeos desta música
          00:00 / 00:00
          automática
          • automática
          Acordes para:violão e guitarra
          dificuldadeexibiçõescontribuições
          fecharplay/pause subir/descer velocidade
            Acordes para:violão e guitarra
            acordes
            fechar
            OK