Cifra Club

Daqui Pra Frente

Nx Zero

Cifra: Principal
exibições 975.699
Tom: E
[Intro]  C#5  E5  A5

E|-------------------------------------------------5----------------------|
B|----5----------4-----5---4------------4-----5------------------4-----5--|
G|------6------6-----6-------4---4----6-----6--------6---6-----6-----6----|
D|--------6--6-----6-----------6----6-----6------------6-----6-----6------|
A|------------------------------------------------------------------------|
E|------------------------------------------------------------------------|

E|-----------------------------------|
B|------4-------4-------4--------4---|
G|----4---4---4---4---4---4----4-----|
D|--6-------6-------6--------6-------|
A|-----------------------------------|
E|-----------------------------------|

C#5                    E5
Estou aqui pra dizer que eu jamais
A5
Imaginei te ver sofrendo assim
 C#5
Te ver chorar
              E5
Vai fazer sofrer ainda mais
A5
Estou aqui para dizer que eu jamais
  B5
Quis te ver assim
C#5
Escrever aqui
 F#5      A5
Tudo que senti

     E
Mais espero que
Daqui pra frente
           B5
Tudo se renove para nos dois
              F#5                           A
Nossas vidas são tão diferentes viva agora tudo que sonhou
            E
Muita coisa ainda está por vir
            B5
Muita coisa ainda vai mudar
            F#5              A
Eu espero que daqui pra frente

( C#5  E5  B5 )

C#5                         E5
Estou aqui pra dizer o seu coração
  A5
Pra te mostrar exatamente pra onde ir
 C#5             E5
Temos muito a viver enganar o tempo não da mais
A5
Estou aqui pra dizer que eu jamais
  B5
Quis te ver assim(quis te ver assim)
C#5
Escrever aqui(escrever aqui)
 F#5         A5
Tudo que senti

     E
Mais espero que
Daqui pra frente
           B5
Tudo se renove para nos dois
              F#5                           A
Nossas vidas são tão diferentes viva agora tudo que sonhou
            E
Muita coisa ainda está por vir
            B5
Muita coisa ainda vai mudar
            F#5              A
Eu espero que daqui pra frente

                 F#5                 Ab
Eu sigo o meu caminho e você siga o seu
                A
E acho que isso é bem mais forte que eu
             F#5
Tive minha chance
                   Ab                A          B5
E não sobrou mais nada, que possa fazer você ficar

     E
Mais espero que
Daqui pra frente
           B
Tudo se renove para nos dois
              F#m                           A
Nossas vidas são tão diferentes viva agora tudo que sonhou
            E
Muita coisa ainda está por vir
            B
Muita coisa ainda vai mudar
             F#m                 A
Esse é meu preço pra deixar você ir

0 comentários

    mostrar mais comentários

    Conseguiu tocar?

    25tocaram0ainda não

    Grave um vídeo tocando Daqui Pra Frente e mande pra gente!

    00:00 / 00:00
    outros vídeos desta música
    repetirqualidadeautomática
    Outro vídeos desta música
      00:00 / 00:00
      automática
      OK