Cifra Club

Espero a Minha Vez

Nx Zero

Cifra: Principal (violão e guitarra)
tom: F (forma dos acordes no tom de E) Capotraste na 1ª casa
[Intro] E5  B4/D#  C#m7
        E5  B4/D#  C#m7

[Primeira Parte]

E5      B4/D#       C#m7
  Se o medo e a cobrança
E5       B4/D#     C#m7
  Tiram minha esperança
       B4     A9                 C#m7
Tento me lembrar, de tudo que vivi
                 A9                      B4
E o que tem por dentro, ninguém pode roubar

Descanço agora

[Refrão]

 A9         E  B4
Pois os dias ruins
 C#m7          A9
Todo mundo tem
       E      B4
Já jurei pra mim
 C#m7         A9
Não desanimar
       E         B4
E não ter mais pressa
              C#m7        D6(9)
Eu sei que o mundo vai girar
               C#m7      C7M          B4  C#m7
O mundo vai girar, eu espero a minha vez

( E5  B4/D#  C#m7 )
( E5  B4/D#  C#m7 ) 

[Primeira Parte]

E5    B4/D#      C#m7
  O suor e o cansaço
E5       B4/D#          C#m7
  Fazem parte dos meus passos
       B4         A9           C#m7
O que nunca esqueci é de onde vim
                   A9                      B4
  E o que tem por dentro, ninguém pode roubar

Descanço agora

[Refrão]

 A9         E  B4
Pois os dias ruins
 C#m7          A9
Todo mundo tem
       E      B4
Já jurei pra mim
 C#m7         A9
Não desanimar
       E         B4
E não ter mais pressa
              C#m7        D6(9)
Eu sei que o mundo vai girar
               C#m7      C7M          B4  C#m7
O mundo vai girar, eu espero a minha vez

[Segunda Parte]

  D6(9)
E eu não to aqui pra dizer o que é certo e errado
 C#m7                         B4
Ninguém tá aqui pra viver em vão
         D6(9)                      C#m7          
Então é bom valer a pena, então é pra valer a pena
           B4
Ou melhor não

[Solo]  A9 E B4 C#m7
        D6(9)  C#m7

Parte 1 De 8

E|----------------------------------------------------|
B|----------------------------------------------------|
G|-12b14--12b14r12--10h12-10~--12b14--12b14r12--10-12-|
D|----------------------------------------------------|
A|----------------------------------------------------|
E|----------------------------------------------------|

Parte 2 De 8

E|----------------------------------------------------|
B|-------13----11----10h11p10-------------------------|
G|-10-10----10----10------------12-10~----------------|
D|----------------------------------------------------|
A|----------------------------------------------------|
E|----------------------------------------------------|

Parte 3 De 8

E|----------13----------------------------------------|
B|----13b15----13b15--11-10-10h11-10------------------|
G|-10--------------------------------12-10------------|
D|----------------------------------------------------|
A|----------------------------------------------------|
E|----------------------------------------------------|

Parte 4 De 8

E|---------------------------15b17r15-13h15-13--------|
B|-----------------10-10-13---------------------------|
G|-9-9-10-10-12-12------------------------------------|
D|----------------------------------------------------|
A|----------------------------------------------------|
E|----------------------------------------------------|

Parte 5 De 8

E|-13-13-13-12-12-10-10-------------------------------|
B|----------------------13-13-11-11-10-10-------------|
G|----------------------------------------12-12-10~---|
D|----------------------------------------------------|
A|----------------------------------------------------|
E|----------------------------------------------------|

Parte 6 De 8

E|----------------------------------------------------|
B|--11-11-11-11-10------------------------------------|
G|--10-10-10-10-10-12-10------------------------------|
D|----------------------------------------------------|
A|----------------------------------------------------|
E|----------------------------------------------------|

Parte 7 De 8

E|-13p10----10----------------------------------------|
B|--------13----13p10---------------------------------|
G|--------------------12b14--------10~----------------|
D|---------------------------12-12--------------------|
A|----------------------------------------------------|
E|----------------------------------------------------|

Parte 8 De 8

E|----------------------------------------------------|
B|-------------13-------------------------------------|
G|----10-12b14----12b14r12-10~------------------------|
D|-12-------------------------------------------------|
A|----------------------------------------------------|
E|----------------------------------------------------|

[Refrão]

A9       E  B4
  Os dias ruins
 C#m7       A9
Todo mundo tem
      E       B4
Já jurei pra mim
 C#m7      A9
Não desanimar
       E         B4
E não ter mais pressa
              C#m7        D6(9)
Eu sei que o mundo vai girar
               C#m7      C7M          B4
O mundo vai girar, eu espero a minha vez

[Final] E5  E4  E5  E4  E 
00:00 / 00:00
Outros vídeos desta música
Repetir
Outros vídeos desta música
Composição de Di Ferrero / Gee Rocha
886.502 exibições
  • Simplificar cifra
    • ½ Tom
    • A
    • Bb
    • B
    • C
    • Db
    • D
    • Eb
    • E
    • F
    • F#
    • G
    • Ab
  • Adicionar à lista

    0 comentários

    Ver todos os comentários

    Conseguiu tocar?

    87 Tocaram 1 Ainda não

    Grave um vídeo tocando Espero a Minha Vez e nos envie!

    Entre para oCifra Club PRO

    Tenha acesso a benefícios exclusivos no App e no Site

    • Chega de anúncios

    • Prioridade de compra em lançamentos

    • Mais recursos no app do Afinador

    • Atendimento Prioritário

    • Descontos nos produtos Cifra Club

    • Ajude a produzir mais conteúdo

    00:00 / 00:00
    Capítulos
    • Início
    • Acordes da introdução
    • Tocando a introdução
    • Ensinando o rítmo introdução devagar
    • Acordes da primeira parte
    • Tocando a primeira parte
    • Ensinando o rítmo da primeira parte devagar
    • Ensinando passagem no rítmo da primeira parte
    • Acordes do refrão
    • Tocando o refrão
    • Ensinando o rítmo do refrão
    • Preparação do refrão para segunda parte
    • Ensinando o rítmo da preparação devagar
    • Acordes da segunda parte
    • Tocando segunda parte
    • Ensinando o rítmo da segunda parte
    • Tocando o solo da música
    • Ensinando o solo (parte 1)
    • Ensinando o solo (parte 2)
    • Ensinando o solo (parte 3)
    • Ensinando o solo (parte 4)
    • Ensinando o solo (parte 5)
    • Ensinando o solo (parte 6)
    • Ensinando o solo (parte 7)
    • Ensinando o solo (parte 8)
    • Tocando o solo inteiro devagar
    • Acordes da parte final
    • Tocando parte final
    • Ensinando o rítmo da parte final
    • Encerramento

    Cifra Club Pro

    Aproveite o Cifra Club com benefícios exclusivos e sem anúncios
    Cifra Club Pro
    Aproveite o Cifra Club com benefícios exclusivos e sem anúncios
    OK