Cifra Club

Fração de Segundo

Nx Zero

Cifra: Principal
exibições 36.057
Tom: B (com acordes na forma de C) Afinação: Eb Ab Db Gb Bb Eb
Tom: C

INTRO 2x:

     Am        Dm     G          C Am Dm G
E|-----5-5-x--5-5-5------3-3-x---------------------------|
B|-----5-5-x--6-6-5------3-3-x---------------------------|
G|-----5-5-x--7-7-5------4-4-x---9--9--9--9h10--9--9--9--|
D|-----7-7-x--7-7-5------5-5-x--10-10-10--8-----8-10-10--|
A|-----7-7-x--5-5-5------5-5-x--10-10-10-10----10-10-10--|
E|--5------x---------3-3---------8--8--8--8-----8--8--8--|

     Am        Dm     G
E|-----5-5-x--5-5-5-----------------------|
B|-----5-5-x--6-6-5-----------------------|
G|-----5-5-x--7-7-5--4-4-4-4-4h5-5-5-5-4--|
D|-----7-7-x--7-7-5--5-5-5-3-3-5-3-3-3-3--|
A|-----7-7-x--5-5-5--5-5-5-5-5-5-5-5-5-5--|
E|--5------x---------3-3-3-3-3-3-3-3-3-3--|

VERSO 4x:

     Am        Dm     G          C Am Dm G
E|-----5-5-x--5-5-5------3-3-x---------------------------|
B|-----5-5-x--6-6-5------3-3-x---------------------------|
G|-----5-5-x--7-7-5------4-4-x---9--9--9--9h10--9--9--9--|
D|-----7-7-x--7-7-5------5-5-x--10-10-10--8-----8-10-10--|
A|-----7-7-x--5-5-5------5-5-x--10-10-10-10----10-10-10--|
E|--5------x---------3-3---------8--8--8--8-----8--8--8--|

     Am        Dm     G
E|-----5-5-x--5-5-5-----------------------|
B|-----5-5-x--6-6-5-----------------------|
G|-----5-5-x--7-7-5--4-4-4-4-4h5-5-5-5-4--|
D|-----7-7-x--7-7-5--5-5-5-3-3-5-3-3-3-3--|
A|-----7-7-x--5-5-5--5-5-5-5-5-5-5-5-5-5--|
E|--5------x---------3-3-3-3-3-3-3-3-3-3--|

O céu parece tão longe quando não há nada a dizer
Se você tem um problema então resolve com você
Até pensei que o inverno jamais fosse acabar
Preciso enxergar as coisas de outra forma, me ajeitar

PRÉ REFRÃO:

[GUITARRA 1]:

F   Dm         Am
 E começar de novo com outro alguém
F     Dm            G
 Que só quer me ver bem
                   F
 Que me fez encontrar
  Dm          Am
A simples melodia
                   F
O caminho pra um lugar
    Dm          Am
Que eu não conhecia
                F
Pra me fazer cantar
     Dm         Am    G
Pra me fazer sorrir
        F                          G
Então deixa eu te fazer sorrir também
[GUITARRA 2]: efeito phaser

E|----------------------| |------------------------|
B|--13--10-------10-----| |--13--10-------10-12~~--|
G|----------9-12----9~--| |----------9-12----------|
D|----------------------| |------------------------|
A|----------------------| |------------------------|
E|----------------------| |------------------------|

E|--5---5---10----10----8---8---8---8----|
B|----5---5----10----10---5---5---5---5--|
G|---------------------------------------|  2x
D|---------------------------------------|
A|---------------------------------------|
E|---------------------------------------|

E|--12----12----15----15----12----12----10---10-------8--|
B|-----10----10----13----13----10----10----8----8----10--|
G|---------------------------------------------------10--|
D|---------------------------------------------------10--|
A|----------------------------------------------------8--|
E|-------------------------------------------------------|


REFRÃO: 2x

     Am        Dm     G          C Am Dm G
E|-----5-5-x--5-5-5------3-3-x---------------------------|
B|-----5-5-x--6-6-5------3-3-x---------------------------|
G|-----5-5-x--7-7-5------4-4-x---9--9--9--9h10--9--9--9--|
D|-----7-7-x--7-7-5------5-5-x--10-10-10--8-----8-10-10--|
A|-----7-7-x--5-5-5------5-5-x--10-10-10-10----10-10-10--|
E|--5------x---------3-3---------8--8--8--8-----8--8--8--|

     Am        Dm     G
E|-----5-5-x--5-5-5-----------------------|
B|-----5-5-x--6-6-5-----------------------|
G|-----5-5-x--7-7-5--4-4-4-4-4h5-5-5-5-4--|
D|-----7-7-x--7-7-5--5-5-5-3-3-5-3-3-3-3--|
A|-----7-7-x--5-5-5--5-5-5-5-5-5-5-5-5-5--|
E|--5------x---------3-3-3-3-3-3-3-3-3-3--|

Acima do juízo
Acima da razão
Eterna fração de segundo
Sentimento bom
Que mudou a direção
Mudou a direção

SOLO SLIDE:

E|----------------------------------------------------|
B|--/10-10~~--10/12~~-12/13~~-13/17~-15--13/15~~-15b--|
G|----------------------------------------------------|
D|----------------------------------------------------|
A|----------------------------------------------------|
E|----------------------------------------------------|

E|-----------------------17-15-------19~~--|
B|--10~~--10/12~~--17-15-------------------|
G|-----------------------------16-16-------|
D|-----------------------------------------|
A|-----------------------------------------|
E|-----------------------------------------|

E|-------------------------------------------17-15-15-17-15-15-17-15-15-17-15-15-19/--|
B|-/10-10~~--10/12~~--12/15--17-15-15-15--17------------------------------------------|
G|------------------------------------------------------------------------------------|
D|------------------------------------------------------------------------------------|
A|------------------------------------------------------------------------------------|
E|------------------------------------------------------------------------------------|

Base solo: (Am Dm G C Am Dm G) (2x)


PRÉ REFRÃO:

[GUITARRA 1]:

F   Dm         Am
 E começar de novo com outro alguém
F     Dm            G
 Que só quer me ver bem
                   F
 Que me fez encontrar
  Dm          Am
A simples melodia
                   F
O caminho pra um lugar
    Dm          Am
Que eu não conhecia
                F
Pra me fazer cantar
     Dm         Am    G
Pra me fazer sorrir
        F                          G
Então deixa eu te fazer sorrir também
[GUITARRA 2]: efeito phaser

E|----------------------| |------------------------|
B|--13--10-------10-----| |--13--10-------10-12~~--|
G|----------9-12----9~--| |----------9-12----------|
D|----------------------| |------------------------|
A|----------------------| |------------------------|
E|----------------------| |------------------------|

E|--5---5---10----10----8---8---8---8----|
B|----5---5----10----10---5---5---5---5--|
G|---------------------------------------|  2x
D|---------------------------------------|
A|---------------------------------------|
E|---------------------------------------|

E|--12----12----15----15----12----12----10---10-------8--|
B|-----10----10----13----13----10----10----8----8----10--|
G|---------------------------------------------------10--|
D|---------------------------------------------------10--|
A|----------------------------------------------------8--|
E|-------------------------------------------------------|

REFRÃO: 6x

     Am        Dm     G          C Am Dm G
E|-----5-5-x--5-5-5------3-3-x---------------------------|
B|-----5-5-x--6-6-5------3-3-x---------------------------|
G|-----5-5-x--7-7-5------4-4-x---9--9--9--9h10--9--9--9--|
D|-----7-7-x--7-7-5------5-5-x--10-10-10--8-----8-10-10--|
A|-----7-7-x--5-5-5------5-5-x--10-10-10-10----10-10-10--|
E|--5------x---------3-3---------8--8--8--8-----8--8--8--|

     Am        Dm     G
E|-----5-5-x--5-5-5-----------------------|
B|-----5-5-x--6-6-5-----------------------|
G|-----5-5-x--7-7-5--4-4-4-4-4h5-5-5-5-4--|
D|-----7-7-x--7-7-5--5-5-5-3-3-5-3-3-3-3--|
A|-----7-7-x--5-5-5--5-5-5-5-5-5-5-5-5-5--|
E|--5------x---------3-3-3-3-3-3-3-3-3-3--|

Acima do juízo
Acima da razão
Sentimento bom
Que mudou a direção
Mudou a direção
Que mudou a direção
Mudou a direção
Que mudou a direção
Acordes para:
    Composição: Nx ZeroColaboração e revisão:

    0 comentários

      mostrar mais comentários

      Conseguiu tocar?

      8tocaram0ainda não

      Grave um vídeo tocando Fração de Segundo e mande pra gente!

      00:00 / 00:00
      outros vídeos desta música
      repetirqualidadeautomática
      Outro vídeos desta música
        00:00 / 00:00
        automática
        OK