Cifra Club

Guerra Por Paz

Nx Zero

Cifra: Principal
exibições 11.869
Tom: D#
Intro:
E|-------------13-------------13-----------|
B|----14----14----------14h16--------------|
G|-15----15-------15-15----------15-15-----|
D|-----------------------------------------|
A|-----------------------------------------|
E|-----------------------------------------|

F#5 D#5 Bb5 G#5

E|-----------------------------------------|
B|-----------------------------------------|
G|--11-11-11-10-10-10-10-10-10/13-13-13----|
D|-----------------------------------------|
A|--9--9--9--8--8--8--8--8--8/11--11-11----|
E|-----------------------------------------|

D#

E|-----1------1----------------------------|
B|---2--2---2--2------4-------4---4-4-4/6--|
G|-3------3---------6---6---6---6----------|
D|----------------6-------6----------------|
A|-----------------------------------------|
E|-----------------------------------------|

E|-----1------1------------------------------------|
B|---2--2---2--2-----4-------4-----------4-4-4/6---|
G|-3------3--------6---6---6---6---6---6-----------|
D|---------------6-------6-------6---6-------------|
A|-------------------------------------------------|
E|-------------------------------------------------|

Bb5            C#5                     G#5
Acordei de um sonho onde alguém perguntava,

O porque das coisas
Bb5                C#5                    G#5
Tipo onde está o amor? Alguém ainda se importa

Isso me fez pensar

(2x)
E|---4-----4-----4-----4----9---4----------|
B|-6---6-6---6-6---6-6---6----6---6--------|
G|-----------------------------------------|
D|-----------------------------------------|
A|-----------------------------------------|
E|-----------------------------------------|

Bb5      C#5          G#5
Como chegamos a esse ponto?

Eu não sei mais
Bb5                  C#5                G#5
Não há caminhos sem volta se tiver esperança

Então responda

F#5               D#5
Porque estamos em guerra por paz?
 Bb5                G#5
Por que estamos em guerra por paz?   E|-----------------------------------------|
 F#5                  D#5            B|-----------------------------------------|
Esse não pode ser o fim da linha     G|-3-5-6-8-8-8-10-10-10-13-10--------------|
 Bb5            G#5                  D|-----------------------------------------|
Ainda existe uma saída               A|-1-3-4-6-6-6-8--8--8--11-8---------------|
F#5 D#5                              E|-----------------------------------------|
Uoo uoo
Bb5            G#5
Ainda existe uma saída
F#5 D#5 Bb5 G#5
Uoo uooo

E|--11b13----------------------------------|

E|-----6~-4~----6~-4~----------------------|
B|--6~-------6~----------------------------|

Bb5                  C#5                    G#5
Quando crescer quero ter o que eles tem na TV,

Ele dizia
Bb5              C#5                  G#5
Mas não tinha noção ainda do que é a vida

Isso me fez pensar

(2x)
E|---4-----4-----4-----4----9---4----------|
B|-6---6-6---6-6---6-6---6----6---6--------|
G|-----------------------------------------|
D|-----------------------------------------|
A|-----------------------------------------|
E|-----------------------------------------|

Bb5      C#5         G#5
Quem deixou virar rotina

Eu não sei mais
Bb5               C#5                G#5
Aquele sonho que tive nunca foi tão real

Então me diga

F#5               D#5
Porque estamos em guerra por paz?
 Bb5                G#5
Por que estamos em guerra por paz?   E|-----------------------------------------|
 F#5                  D#5            B|-----------------------------------------|
Esse não pode ser o fim da linha     G|-3-5-6-8-8-8-10-10-10-13-10--------------|
 Bb5            G#5                  D|-----------------------------------------|
Ainda existe uma saída               A|-1-3-4-6-6-6-8--8--8--11-8---------------|
F#5 D#5                              E|-----------------------------------------|
Uoo uoo
Bb5            G#5
Ainda existe uma saída
F#5 D#5 Bb5 G#5
Uoo uooo

(Guita 1)
E|----13-11-18----13-11-18---------13-13-11-11-18-----|
B|-11----------11-----------11-11---------------------|
G|----------------------------------------------------|
D|----------------------------------------------------|
A|----------------------------------------------------|
E|----------------------------------------------------|

(Guita 2)
E|--------------------------11----------13------------|
B|--11----(4x)--13----(4x)--------(4x)--------(4x-----|
G|-----10----------10----------10----------10---------|
D|----------------------------------------------------|
A|----------------------------------------------------|
E|----------------------------------------------------|


Entre palavras e promessas sinto falta da época em que a verdade era sincera.
Um olhar valia mais que ouro.
Quando uma história era real você podia realmente acreditar.
As vezes a gente dificulta as coisas.
Cada um chama Deus de um nome, sendo que pra Ele somos todos iguais.
Sei que uma hora tudo pode mudar, pode até ser um som distante mas não é impossivel
Em pensar que o poder está na mão de poucos... e eles não fazem nada
Pensando bem quando crescer não quero ter o que eles tem na tv
Só quero ser feliz..

F#5               D#5
Porque estamos em guerra por paz?
Bb5                G#5
Por que estamos em guerra por paz?
F#5               D#5
Porque estamos em guerra por paz?
Bb5               G#5
Uooo

 F#5               D#5
Porque estamos em guerra por paz?    E|-----------------------------------------|
 Bb5                G#5              B|-----------------------------------------|
Por que estamos em guerra por paz?   G|--8-8-6-6--8-10-10-----------------------|
 F#5                  D#5            D|-----------------------------------------|
Esse não pode ser o fim da linha     A|--6-6-4-4--6-8--8------------------------|
Bb5            G#5                   E|-----------------------------------------|
Ainda existe uma saída
F#5 D#5
Uoo uoo
Bb5            G#5
Ainda existe uma saída
F#5 D#5 Bb5 G#5
Uoo uooo
D#5
Uma saída
Acordes para:
    Colaboração e revisão:
    • Mateus Soares

    0 comentários

      mostrar mais comentários

      Conseguiu tocar?

      1tocaram0ainda não

      Grave um vídeo tocando Guerra Por Paz e mande pra gente!

      00:00 / 00:00
      outros vídeos desta música
      repetirqualidadeautomática
      Outro vídeos desta música
        00:00 / 00:00
        automática
        OK