Cifra Club

Mentiras e fracassos

Nx Zero

Cifra: Principal
exibições 163.108
Tom: C#
^ = bend
~ = vibrato
/ = slide

Introduçao..
essa parte é feita abafada.  Depois vem o riff 1 abaixo
e|-------------------------------------  
b|-------------------------------------
g|------------------------------------- 
d|-------------------------------------
a|-4-4-4-4-4-4-4-4-4-4-4-4-4-4-4-4-4-4-
e|-------------------------------------

(O:00) riff 1
e|--------------------------------------------------------
b|--------------------------------------------------------
g|--------------------------------------------------------
d|-----2----4----4-6---4-6---4-----2----4----7----6----4--
a|--44---44---44-----4-----4----00---00---00---00---00----
e|--------------------------------------------------------

(0:04) riff 1
e|------------------------------------------------------------
b|-------------------------------------7----------------------
g|---------------------------------6-----6---6-----4---6---4--
d|-----2----4----2-4---2-4---2--44---4-----4----66---6---6----
a|--22---22---22-----2-----2----------------------------------
e|------------------------------------------------------------

(0:08) aqui a segunda guitarra repete o primeiro riff
e|--------------------------------------------------------
b|--------------------------------------------------------
g|--------------------------------------------------------
d|-----6----7----7-9---7-9---7-----6----7----9----7----6--
a|--77---77---77-----7-----7----77---77---77---77---77----
e|--------------------------------------------------------

(0:13) aqui tambem
e|------------------------------------------------------------------
b|------------------------------------------------------------------
g|--------------------------------------11--------------------------
d|-----6----7----6-7---6-7---6-----11------11---------9----11----9--
a|--77---77---77-----7-----7----99----9-------9-11-11---11----11----
e|------------------------------------------------------------------

(0:16)
e|----------------------------------------------------------
b|----------------------------------------------------------
g|--6666666666-4~6666666666-999-88888-4~666-888-999-131313--
d|----------------------------------------------------------
a|--4444444444-2~4444444444-777-66666-2~444-666-777-111111--
e|----------------------------------------------------------

(0:25) aqui a segunda guitarra repete a primeira oitavada
e|----------------------------------------------------------
b|----------------------------------------------------------
g|--8~9999999999-8~9999999999-131313-111111-8~9-8-6--9-8-6--
d|----------------------------------------------------------
a|--6~7777777777-6~7777777777-111111-9-9-9--6~7-6-4--7-6-4--
e|----------------------------------------------------------

(0:36)
e|--7-----7-----7-----7-----7-----7-----7-----7-------------
b|----5-----5-----5-----5-----5-----5-----5-----5------4-5--
g|------4-----4-----4-----4-----4-----4-----4-----4--6------
d|----------------------------------------------------------
a|----------------------------------------------------------
e|----------------------------------------------------------

(0:52) aqui a segunda guitarra alguns trechos de base em C#
e|-----------------------------------------    ------------------------------------
b|---------------------------------121212--    ------------------------------------
g|--99999-888888-999-111111-131313--------- 3x --99999-888888-8~999-8-6--9-8-6--6--
d|----------------------------------9-9-9--    ------------------------------------
a|--77777-666666-777--9-9-9-111111---------    --77777-666666-6~777-6-4--7-6-4--4--
e|-----------------------------------------    ------------------------------------

(1:11)
e|--7------------7------------7------------7-------------
b|----5------5-----5------5-----5------5-----5------5----
g|------6--6---6-----6--6---6-----6--6---6-----6--6---6--
d|-------------------------------------------------------
a|-------------------------------------------------------
e|-------------------------------------------------------

(1:18) aqui a segunda guitarra faz uma base abafada em C#
e|---------7--------
b|-----5-----5---5--
g|--66---6-----6---- 8x
d|------------------
a|------------------
e|------------------

(1:26) aqui a segunda guitarra faz alguns trechos de base em C#
e|-----------------------------------------
b|---------------------------------121212--
g|--99999-888888-999-111111-131313--------- 4x
d|---------------------------------9-9-9---
a|--77777-666666-777-9-9-9--111111---------
e|-----------------------------------------

(1:41)
e|---------------------------------------------------------------------------------------------
b|-----------------------------------------------------------------------------------------12--
g|--999-999-999-999-8/999-999-999-999-13/111111-111111-111111-111111-888-999-111111-131313----- 2x
d|------------------------------------------------------------------------------------------9--
a|--777-777-777-777-6/777-777-777-777-11/-9-9-9--9-9-9--9-9-9--9-9-9-777-666--9-9-9-111111-----
e|---------------------------------------------------------------------------------------------

(1:41) aqui a segunda guitarra acompanhado a oitavada acima
e|------------------------------------------------------------------------
b|------------------------------------------------------------------------
g|--666-666-6666-666-666-666-6666-666-666-666-6666-888-999-111111-131313-- 2x
d|------------------------------------------------------------------------
a|--444-444-4444-444-444-444-4444-444-444-444-4444-777-666--9-9-9-111111--
e|------------------------------------------------------------------------

(1:57) as duas guitarras juntas
e|---------
b|---------
g|--9-8-6--
d|---------
a|--7-6-4--
e|---------

(2:04)
e|-------------------------------------
b|--0h4h5-0h5h7-0h7h9h-0h9h10-0h10h12--
g|------------------------------------- 4x
d|-------------------------------------
a|-------------------------------------
e|-------------------------------------

(2:04) o "dedilhado" que acompanha o desenho acima
e|-------------------
b|--------------7----
g|------9---------9-- 4x
d|----9---9---9------
a|--7-------7--------
e|-------------------

(2:12) aqui a segunda guitarra faz uma base em E
e|---------------------------------------------------------------------
b|--5p0h5p0h5p0h5p0h5p0h5p0h5p0h5p0h-4p0h4p0h4p0h4p0h4p0h4p0h4p0h4p0h--
g|---------------------------------------------------------------------
d|---------------------------------------------------------------------
a|---------------------------------------------------------------------
e|---------------------------------------------------------------------

(2:16) aqui tambem
e|-----------------------------------0---0---0---0---0---0---0---0-----
b|--2p0h2p0h2p0h2p0h2p0h2p0h2p0h2p0h-2p0h2p0h2p0h2p0h2p0h2p0h2p0h2p0h--
g|---------------------------------------------------------------------
d|---------------------------------------------------------------------
a|---------------------------------------------------------------------
e|---------------------------------------------------------------------

(2:20) e aqui tambem
e|--0---0---0---0---0---0---0---0---0---0---0---0---0---0---0---0------
b|--5p0h5p0h5p0h5p0h5p0h5p0h5p0h5p0h5p0h5p0h5p0h5p0h5p0h5p0h5p0h5p0h---
g|---------------------------------------------------------------------
d|---------------------------------------------------------------------
a|---------------------------------------------------------------------
e|---------------------------------------------------------------------

*(2:12) *se escutar bem da para ouvir uma terceia guitarra
*e|------------------------
*b|--7-7-7-7-7-9-9-9-10-9--
*g|--9-9-9-9-9-9-9-9--9-9--
*d|------------------------
*a|------------------------
*e|------------------------

(2:28) riff 1
e|--------------------------------------------------------
b|--------------------------------------------------------
g|--------------------------------------------------------
d|-----2----4----4-6---4-6---4-----2----4----7----6----4--
a|--44---44---44-----4-----4----00---00---00---00---00----
e|--------------------------------------------------------

(2:32) riff 1
e|------------------------------------------------------------
b|-------------------------------------7----------------------
g|---------------------------------6-----6---6-----4---6---4--
d|-----2----4----2-4---2-4---2--44---4-----4----66---6---6----
a|--22---22---22-----2-----2----------------------------------
e|------------------------------------------------------------

(2:36) aqui a segunda guitarra repete o primeiro riff
e|--------------------------------------------------------
b|--------------------------------------------------------
g|--------------------------------------------------------
d|-----6----7----7-9---7-9---7-----6----7----9----7----6--
a|--77---77---77-----7-----7----77---77---77---77---77----
e|--------------------------------------------------------

(2:40) aqui tambem
e|------------------------------------------------------------------
b|------------------------------------------------------------------
g|--------------------------------------11--------------------------
d|-----6----7----6-7---6-7---6-----11------11---------9----11----9--
a|--77---77---77-----7-----7----99----9-------9-11-11---11----11----
e|------------------------------------------------------------------

(2:43) aqui e usado o pedal de wah-wah e a segunda guitarra faz a base em C# oitavado
e|-----------------------------------------------------------------------------------------
b|-----------------------------------------------------------------------------------------
g|---------------------------------------------------9-11^-11^-11-9~-9~-11^-11^-11-9~-9~/--
d|--9h11-1111111111111111-9h11-1111111111111111-9-11---------------------------------------
a|--9-----9-9-9-9-9-9-9-9-9-----9-9-9-9-9-9-9-9--------------------------------------------
e|-----------------------------------------------------------------------------------------

(2:51) *palhete bem rapido com movimentos sutis no pedal de wah-wah
e|-------------------------------------------------------------------------------------------------
b|--0-0-2-0-2-4-0-4-5-0-5-7-0-7-9-0-9-10-0-10-12-0-12-14-0-14-15-0-15-17-0-17-19-0-19-21-0-21-22^--
g|-------------------------------------------------------------------------------------------------
d|-------------------------------------------------------------------------------------------------
a|-------------------------------------------------------------------------------------------------
e|-------------------------------------------------------------------------------------------------

(2:55) aqui tambem se usa o pedal de wah-wah
e|-----------------------------------------
b|-----------------------------------------
g|--9-11^-11^-11-9~-9~-11^-11^-11^-11^...--
d|-----------------------------------------
a|-----------------------------------------
e|-----------------------------------------

(2:59) 
e|---------------------------------------------------------------------------------------------
b|-----------------------------------------------------------------------------------------12--
g|--999-999-999-999-8~999-999-999-999-13~111111-111111-111111-111111-888-999-111111-131313-----
d|------------------------------------------------------------------------------------------9--
a|--777-777-777-777-6~777-777-777-777-11~-9-9-9--9-9-9--9-9-9--9-9-9-777-666--9-9-9-111111-----
e|---------------------------------------------------------------------------------------------

(2:59) segunda guitarra acompanhado a oitavada acima
e|-------------------------------------------------------------------------
b|-------------------------------------------------------------------------
g|--666-666-6666-666-666-666-6666-666-666-666-6666--888-999-111111-131313--
d|-------------------------------------------------------------------------
a|--444-444-4444-444-444-444-4444-444-444-444-4444--777-666--9-9-9-111111--
e|-------------------------------------------------------------------------

(3:15)
e|---------------------
b|---------------------
g|--9-9--9-9--9-9--9/--
d|--9-9--9-9--9-9--9/--
a|--7-7--7-7--7-7--7/--
e|---------------------

(3:14) a segunda guitarra reveza com a primeira
e|---------------------
b|---------------------
g|--6-6--6-6--6-6--6/--
d|--6-6--6-6--6-6--6/--
a|--4-4--4-4--4-4--4/--
e|---------------------
Acordes para:
    Composição: NX ZeroColaboração e revisão:
    • Diogo
    • Paulo Rocha
    • Filipe Martinelli

    0 comentários

      mostrar mais comentários

      Conseguiu tocar?

      1tocaram0ainda não

      Grave um vídeo tocando Mentiras e fracassos e mande pra gente!

      00:00 / 00:00
      outros vídeos desta música
      repetirqualidadeautomática
      Outro vídeos desta música
        00:00 / 00:00
        automática
        OK