Cifra Club

Nada Mais É Como Era Antes

Nx Zero

Cifra: Principal
exibições 28.405
Tom: F# (com acordes na forma de G) Afinação: Eb Ab Db Gb Bb Eb
G                       Em7/B
Levei um tempo até conseguir
G                         Em7/B
Te esconder aqui na minha mente
C9                               G     D4/E
Seguir minha vida com aquele sorriso
C9                  G
Que só enganava, que não me conhece
C9                                                Em7/B
Foi de repente, acabou como fogo que apaga com a chuva
              D4/A
Você se foi sem levar as lembranças
C9                 Em7/B        D4/A
Me pergunto aonde está, alem de aqui dentro de mim
C9                        Em7/B
Como a foto rasgada na estante
           D4/A
Nada mais, nada mais é como era antes

G                    Em7/B
Às vezes vou naquele lugar
G                       Em7/B
E até parece que vou te encontrar
C9                                         G    D4/E
Só engano a mim mesmo, tenho que cuidar de mim
C9                                      G
Tô levando um peso de algo que não teve fim
C9                                       Em7/B
Que de repente acabou, como uma mentira impossível
             D4/A
De acreditar sem sentido, sem logica

C9                 Em7/B        D4/A
Me pergunto aonde está, alem de aqui dentro de mim
C9                        Em7/B
Como a foto rasgada na estante
           D4/A
Nada mais, nada mais é como era antes

 Acordes finais

               G
E|-----------------------------------------------
B|-------------8--------------------------------
G|---------7------------------------------------
D|----------------------9-----------------------
A|--------------------------10------------------
E|-----------------------------------------------


              D/G
E|-----------------------------------------------
B|-----------------------------------------------
G|--------------11-----------------------------
D|-------------------12------------------------
A|---------10-----------------------------------
E|-----------------------------------------------
Acordes para:
    Composição: Di Ferrero / Gee RochaColaboração e revisão:
    • luiz alexandre

    0 comentários

      mostrar mais comentários

      Conseguiu tocar?

      12tocaram0ainda não

      Grave um vídeo tocando Nada Mais É Como Era Antes e mande pra gente!

      00:00 / 00:00
      outros vídeos desta música
      repetirqualidadeautomática
      Outro vídeos desta música
        00:00 / 00:00
        automática
        OK