Cifra Club

Por Amor

Nx Zero

Cifra: Principal (violão e guitarra)
tom: A (forma dos acordes no tom de Bb) Afinação: Eb Ab Db Gb Bb Eb
[Intro]

E|-----------------------------------------------------|
B|-----------------------------------------------------|
G|-----------------------------------------------------|  4x
D|-----------------------------------------------------|
A|--------5--------------------------17----------------|
E|-3--3-3----3-3-3-3~~-----15--15-15-----15-15-15-15~~-|

E|-------------|     |-----------|
B|-------------|     |-----------|
G|-17-15-------| 12x |-17-15-----|
D|-------17-15-|     |-------17\-|
A|-------------|     |-----------|
E|-------------|     |-----------|

VERSO:

E|-------------|    |-------------|
B|-------------|    |-------------|
G|-------------| 7x |-------------|
D|-------------|    |-------------|
A|-------------|    |-------------|
E|-3-3-3-3-3-3-|    |-6-6-6-6-6-6-|

Nunca fui de achar que as coisas caem do céu
Não conto com a sorte, não me faço de réu
Dinheiro também quero, mas não faz minha cabeça
Posso ser feliz não importa onde esteja
Vejo a mágica no sol, nas luzes da cidade
Poesia tá no som, no céu, na saudade
Não importa o que for, se for de verdade

E|-------------|
B|-------------|
G|-------------| 8x
D|-------------|
A|-------------|
E|-3-3-3-3-3-3-|

O coração não mente, o que é certo a gente sente
Lavar todas as mágoas em água corrente
Impossível é uma palavra criada só pela mente
Tá no comando, vem comigo ou sai da frente
Sonho não tem preço e por ele não se paga
Fé é meu escudo e dele nada passa
O som que liberta o corpo e acalma
A paz que eu quero é a riqueza da alma

REFRÃO:

[GUITARRA 1]:
     Eb7M  Cm  Gm
E|--3-----3---3--|
B|--3-----4---3--|
G|--3-----5---3--|
D|--5-----5---5--|
A|--6-----3---5--|
E|------------3--|

    Eb7M  Cm      Gm
Oh-----------por amor, por amor, por amor
    Eb7M  Cm      Gm
Oh-----------por amor, por amor, por amor
    Eb7M                    Cm
A sincera intenção de quem ama
     Gm
Surpreende o grito de quem se engana
    Eb7M  Cm      Gm
Oh-----------por amor, por amor, por amor

[GUITARRA 2]:

E|------------------------------------|
B|------------------------------------|
G|-12--15-15-17-17b19r17-15-----------| 2x
D|--x---x--x-----------------15-15h17-|
A|-10--13-13/15-----------------------|
E|------------------------------------|

VERSO:
                                        H.M.
E|-------------|    |-------------|    |----|
B|-------------|    |-------------|    |----|
G|-------------| 5x |-------------| 4x |-12-|
D|-------------|    |-------------|    |-12-|
A|-------------|    |-------------|    |-12-|
E|-3-3-3-3-3-3-|    |-6-6-6-6-6-6-|    |-12-|

Sabe aquela história do pobre menino rico
Que fala, fala, e não tem nada a dizer?
Zero de carisma, paga pau de gringo
Fica em casa e bate uma de domingo a domingo
Quero ver dar a cara a tapa e fazer o que gosta
Ao invés de ficar na net escrevendo bosta
Se mostra o jogador mas só esquenta o banco
Diabo escondido em roupa de santo

E|-------------|    |-------------|    |-------------|
B|-------------|    |-------------|    |-------------|
G|-------------| 4x |-------------| 2x |-------------| 2x
D|-------------|    |-------------|    |-------------|
A|-------------|    |-------------|    |-------------|
E|-3-3-3-3-3-3-|    |-6-6-6-6-6-6-|    |-3-3-3-3-3-3-|

Aperta um e sai soltando fumaça
Pra todo mundo ver quando ele passa
Difícil aparecer sendo você de verdade
Muito falso humilde com zero humildade
Fica de bobeira por aí falando gíria
Se acha o malandro, se acha da quadrilha
Se vier pisar no pé é melhor dar ré
Com corpo fechado e blindado na fé

REFRÃO:

[GUITARRA 1]:
     Eb7M  Cm  Gm
E|--3-----3---3--|
B|--3-----4---3--|
G|--3-----5---3--|
D|--5-----5---5--|
A|--6-----3---5--|
E|------------3--|

    Eb7M  Cm      Gm
Oh-----------por amor, por amor, por amor
    Eb7M  Cm      Gm
Oh-----------por amor, por amor, por amor
    Eb7M                    Cm
A sincera intenção de quem ama
     Gm
Surpreende o grito de quem se engana
    Eb7M  Cm      Gm
Oh-----------por amor, por amor, por amor

[GUITARRA 2]:

E|------------------------------------|
B|------------------------------------|
G|-12--15-15-17-17b19r17-15-----------|
D|--x---x--x-----------------15-15h17-|
A|-10--13-13/15-----------------------|
E|------------------------------------|

E|----------------------------------------------------------|
B|----------------------------------------------------------|
G|-12--15-15-17-17b19r17-15---------------------------------|
D|--x---x--x-----------------15-15h17--17b19-17b19-17b19r17-|
A|-10--13-13/15---------------------------------------------|
E|----------------------------------------------------------|

INTRO:

E|-----------------------------------------------------|
B|-----------------------------------------------------|
G|-----------------------------------------------------|  4x
D|-----------------------------------------------------|
A|--------5--------------------------17----------------|
E|-3--3-3----3-3-3-3~~-----15--15-15-----15-15-15-15~~-|

Por amor, por amor, por amor, por amor
00:00 / 00:00
Outros vídeos desta música
Repetir
Outros vídeos desta música
Compositor não encontrado.
Colaboração e revisão:
  • Hans
1.163 exibições
    • ½ Tom
    • A
    • Bb
    • B
    • C
    • Db
    • D
    • Eb
    • E
    • F
    • F#
    • G
    • Ab
  • Adicionar à lista

    0 comentários

    Ver todos os comentários

    Conseguiu tocar?

    0 Tocaram 0 Ainda não

    Grave um vídeo tocando Por Amor e nos envie!

    Entre para oCifra Club PRO

    Tenha acesso a benefícios exclusivos no App e no Site

    • Chega de anúncios

    • Prioridade de compra em lançamentos

    • Mais recursos no app do Afinador

    • Atendimento Prioritário

    • Descontos nos produtos Cifra Club

    • Ajude a produzir mais conteúdo

    00:00 / 00:00

    Cifra Club Pro

    Aproveite o Cifra Club com benefícios exclusivos e sem anúncios
    Cifra Club Pro
    Aproveite o Cifra Club com benefícios exclusivos e sem anúncios
    OK