Cifra Club

Razões e Emoções

Nx Zero

Cifra: Guitarra
exibições 447.198
Tom: D# (com acordes na forma de E) Afinação: Eb Ab Db Gb Bb Eb
[Intro] E5  B/D#  C#5  B5

E|-----------------------------------------------------|
B|-7---7---7---7---7---7---7---7-----------------------|
G|---9---9---9---9---9---9---9---9---------------------|
D|-----------------------------------------------------|
A|-----------------------------------------------------|
E|-----------------------------------------------------|

E|-----------------------------------------------------|
B|-7---7---7---7---10---10---9---9---------------------|
G|---9---9---9---9----9----9---9---9-------------------|  (3x)
D|-----------------------------------------------------|
A|-----------------------------------------------------|
E|-----------------------------------------------------|

E|-----------------------------------------------------|
B|-7---7---7---7---7---7---7---------------------------|
G|---9---9---9---9---9---9-----------------------------|
D|-----------------------------------------------------|
A|-----------------------------------------------------|
E|-----------------------------------------------------|


[Primeira Parte]

 E5
Dizer
                B/D#
O que eu posso dizer
                    C#5
Se estou cantando agora

Pra você
              B5
Ouvir com outra pessoa

E|-----------------------------------------------------|
B|-----------------------------------------------------|
G|-8-8-8-9-9-9-9-9-9-9-9-9-9-9-9-9---------------------|
D|-----------------------------------------------------|
A|-6-6-6-7-7-7-7-7-7-7-7-7-7-7-7-7---------------------|
E|-----------------------------------------------------|

E|-----------------------------------------------------|
B|-----------------------------------------------------|
G|-8-8-8-9-9-9-9-9-9-9-9-9-9-9-9-9---------------------|
D|-----------------------------------------------------|
A|-6-6-6-7-7-7-7-7-7-7-7-7-7-7-7-7---------------------|
E|-----------------------------------------------------|

E|-----------------------------------------------------|
B|-----------------------------------------------------|
G|-13-13-13-9-9-9-9-9-9-9-9-9-9-9-9-9------------------|
D|-----------------------------------------------------|
A|-11-11-11-7-7-7-7-7-7-7-7-7-7-7-7-7------------------|
E|-----------------------------------------------------|

E|-----------------------------------------------------|
B|-----------------------------------------------------|
G|-11-11-11-11-11-11-11-9-8-8-8-8----------------------|
D|--------------------------------x-x-x----------------|
A|--9--9--9--9--9--9--9-7-6-6-6-6-x-x-x----------------|
E|--------------------------------x-x-x----------------|


[Pré-Refrão]

E5
   É que às vezes acho
         B/D#
Que não sou o melhor
         C#5
Pra você

Mas às vezes acho
         B5
Que poderíamos ser
                  F#5
O melhor pra nós dois
                 G#5  A9
Só quero que saiba

E|-----------------------------------------------------|
B|-----------------------------------------------------|
G|-9/11--9-9-9-9-9-9-9-9-9-9-9-9-9-9-------------------|
D|-----------------------------------------------------|
A|-7/-9--7-7-7-7-7-7-7-7-7-7-7-7-7-7-------------------|
E|-----------------------------------------------------|

E|-----------------------------------------------------|
B|-----------------------------------------------------|
G|-9/11--8-8-8-8-8-8-8-8-8-8-8-8-8-8-------------------|
D|-----------------------------------------------------|
A|-7--9--6-6-6-6-6-6-6-6-6-6-6-6-6-6-------------------|
E|-----------------------------------------------------|

E|-----------------------------------------------------|
B|-----------------------------------------------------|
G|-9/11--13-13-13-13-13-13-13-13-13-13-13-13-13-13-----|
D|-----------------------------------------------------|
A|-7/-9--11-11-11-11-11-11-11-11-11-11-11-11-11-11-----|
E|-----------------------------------------------------|

E|-----------------------------------------------------|
B|-----------------------------------------------------|
G|-11-11-11-11-11-11-11-9-8-8-8-8-8-8-8-8--------------|
D|-----------------------------------------------------|
A|--9--9--9--9--9--9--9-7-6-6-6-6-6-6-6-6--------------|
E|-----------------------------------------------------|

E|-----------------------------------0-----------------|
B|-----------------------------------0-----------------|
G|-----------------------------------6-----------------|
D|-4-------4-------4-------4--6--7---------------------|
A|-4-------4-------4-------4--6--7---------------------|
E|-2-0-2-0-2-0-2-0-2-0-2-0-2--4--5---------------------|

  P.M. . . . . . .
E|-----------------------------------------------------|
B|-----------------------------------------------------|
G|-----------------------------------------------------|
D|-----------------------------------------------------|
A|-7-7-7-7-7-7-7-7-------------------------------------|
E|-5-5-5-5-5-5-5-5-------------------------------------|


[Refrão]

C#m                A9
Entre razões e emoções

A saída
E5       B11
É fazer valer a pena
 C#m
Se não agora
   A9
Depois, não importa
 E5
Por você
 B11
Posso esperar


[Interlúdio] E5  B/D#  C#5  B5

E|-----------------------------------------------------|
B|-7---7---7---7---10---10---9---9---------------------|
G|---9---9---9---9----9----9---9---9-------------------|  (3x)
D|-----------------------------------------------------|
A|-----------------------------------------------------|
E|-----------------------------------------------------|

E|-----------------------------------------------------|
B|-7---7---7---7---7---7---7---------------------------|
G|---9---9---9---9---9---9-----------------------------|
D|-----------------------------------------------------|
A|-----------------------------------------------------|
E|-----------------------------------------------------|


[Terceira Parte]

 E5
Sentir
             B/D#
O que posso sentir
                  C#5
Se em um segundo tudo acabar
         B5
Não vou ter como fugir


[Pré-Refrão]

E5
   É que às vezes acho
         B/D#
Que não sou o melhor
         C#5
Pra você

Mas às vezes acho
         B5
Que poderíamos ser
                 (Riff 1)  
O melhor pra nós dois
                 G#5  A9
Só quero que saiba


[Refrão]

C#m                A7M(9)
Entre razões e emoções

A saída
E5       B11
É fazer valer a pena
 C#m
Se não agora
   A7M(9)
Depois, não importa
 E5
Por você

 B11          B11/A
Posso esperar
        
Posso esperar

   C#m            A7M(9)
E|-------0--------------0-------------------|
B|----------0--------------0----------------|
G|---6--------6-----6--------6/-------------|
D|-----6--------6-----6---------------------|
A|-4--------------0-------------------------|
E|------------------------------------------|

   E5             B11
E|-------0--------------0-------------------|
B|----------0--------------0----------------|
G|---9--------9-----8--------8--------------|
D|-----9--------9-----9--------9------------|
A|-7----------------------------------------|
E|----------------7-------------------------|

   C#m            A7M(9)
E|-------0--------------0-------------------|
B|----------0--------------0----------------|
G|---6--------6-----6--------6/-------------|
D|-----6--------6-----6---------------------|
A|-4--------------0-------------------------|
E|------------------------------------------|

   E5             B11
E|-------0--------------0-------------------|
B|----------0--------------0----------------|
G|---9--------9-----8--------8--------------|
D|-----9--------9-----9--------9------------|
A|-7----------------------------------------|
E|----------------7-------------------------|

   B11/A
E|---------0-------0-------0-------0--------|
B|-------0---0---0---0---0---0---0-0--------|
G|-----8-------8-------8-------8---8--------|
D|---9-----------------------------9--------|
A|-0-------------------------------0--------|
E|------------------------------------------|


[Solo] 

(Guitarra 1)

E|-----------------------------------------------------|
B|-----------------------------------------------------|
G|-9-9-9-9-13-13-13-13-14-14-14-14-18-18-18-18---------|
D|-----------------------------------------------------|
A|-7-7-7-7-11-11-11-11-12-12-12-12-16-16-16-16---------|
E|-----------------------------------------------------|

E|-----------------------------------------------------|
B|-----------------------------------------------------|
G|-16-16-16-16-14-14-14-14-13-13-13-13-8-8-8-8---------|
D|-----------------------------------------------------|
A|-14-14-14-14-12-12-12-12-11-11-11-11-6-6-6-6---------|
E|-----------------------------------------------------|

E|-----------------------------------------------------|
B|-----------------------------------------------------|
G|-4/6--6-6-6-4-4-4------------------------------------|
D|------------------7-7-7-7-7-7-7-7--------------------|
A|-2/4--4-4-4-2-2-2------------------------------------|
E|------------------5-5-5-5-5-5-5-5--------------------|

E|-----------------------------------------------------|
B|-----------------------------------------------------|
G|-6/9--9-9-9-8-8-8-4-4-4-4-4-4-4-4--------------------|
D|-----------------------------------------------------|
A|-4/7--7-7-7-6-6-6-2-2-2-2-2-2-2-2--------------------|
E|-----------------------------------------------------|

(Guitarra 2)

E|-----------------------------------------------------|
B|-----------------------------------------------------|
G|-9-9-9-9-9-9-9-9-9-9-9-9-9-9-9-9---------------------|
D|-----------------------------------------------------|
A|-7-7-7-7-7-7-7-7-7-7-7-7-7-7-7-7---------------------|
E|-----------------------------------------------------|

E|-----------------------------------------------------|
B|-----------------------------------------------------|
G|-9-9-9-9-9-9-9-9-9-9-9-9-8-8-8-8---------------------|
D|-----------------------------------------------------|
A|-7-7-7-7-7-7-7-7-7-7-7-7-6-6-6-6---------------------|
E|-----------------------------------------------------|

E|-----------------------------------------------------|
B|-----------------------------------------------------|
G|-9-9-9-9-9-9-9-9-9-9-9-9-9-9-9-9---------------------|
D|-----------------------------------------------------|
A|-7-7-7-7-7-7-7-7-7-7-7-7-7-7-7-7---------------------|
E|-----------------------------------------------------|

E|-----------------------------------------------------|
B|-----------------------------------------------------|
G|-11/13--13-13-13-11-11-11-8-8-8-8-8-8-8-8------------|
D|-----------------------------------------------------|
A|--9/11--11-11-11--9--9--9-6-6-6-6-6-6-6-6------------|
E|-----------------------------------------------------|


[Refrão Final]

C#m                A9
Entre razões e emoções

A saída
E5       B11
É fazer valer a pena
 C#m
Se não agora
   A9
Depois, não importa
 E5
Por você
 B11
Posso esperar

C#m                A9
Entre razões e emoções

A saída
E5       B11
É fazer valer a pena
 C#m
Se não agora
   A9
Depois, não importa
 E5
Por você
 B11          A5
Posso esperar
           
Posso esperar

Posso esperar

Posso esperar
Acordes para:

    0 comentários

      mostrar mais comentários

      Conseguiu tocar?

      0tocaram0ainda não

      Grave um vídeo tocando Razões e Emoções e mande pra gente!

      00:00 / 00:00
      outros vídeos desta música
      repetirqualidadeautomática
      Outro vídeos desta música
        00:00 / 00:00
        automática
        Capítulos
        • Tocando a música
        • Apresentação / Equipamentos
        • Afinação 1/2 tom abaixo
        • Configuração Hot Drive
        • Acordes da Base
        • Tocando Introdução
        • Intro: Riff Principal - Parte 1 de 3
        • Intro: Riff Principal - Parte 2 de 3
        • Intro: Riff Principal - Parte 3 de 3
        • Base da Introdução
        • Dicas Primeira Parte
        • Tocando Primeira Parte
        • Primeira Parte: Riff - Parte 1 de 4
        • Primeira Parte: Riff - Parte 2 de 4
        • Primeira Parte: Riff - Parte 3 de 4
        • Primeira Parte: Riff - Parte 4 de 4
        • Acordes Pré-Refrão
        • Tocando Pré-Refrão
        • Base do Pré-Refrão
        • Passagem 1
        • Riff Pré-Refrão - Parte 1 de 4
        • Riff Pré-Refrão - Parte 2 de 4
        • Riff Pré-Refrão - Parte 3 de 4
        • Riff Pré-Refrão - Parte 4 de 4
        • Passagem 2
        • Acordes Refrão
        • Tocando Refrão
        • Base do Refrão
        • Dicas Interlúdio - Repetição
        • Tocando Interlúdio - Repetição
        • Segundo Refrão - Parte 1 de 5
        • Segundo Refrão - Parte 2 de 5
        • Segundo Refrão - Parte 3 de 5
        • Segundo Refrão - Parte 4 de 5
        • Segundo Refrão - Parte 5 de 5
        • Dicas Solo
        • Tocando Solo
        • Solo: Guitarra 1 - Parte 1 de 4
        • Solo: Guitarra 1 - Parte 2 de 4
        • Solo: Guitarra 1 - Parte 3 de 4
        • Solo: Guitarra 1 - Parte 4 de 4
        • Solo: Guitarra 2 - Parte 1 de 4
        • Solo: Guitarra 2 - Parte 2 de 4
        • Solo: Guitarra 2 - Parte 3 de 4
        • Solo: Guitarra 2 - Parte 4 de 4
        • Encerramento
        OK