Cifra Club

Razões e Emoções

Nx Zero

Tab de baixo: Principal
exibições 94.353
(Começa so a guitarra e a batera)
Intro:

G|------------------------------------------------------------------------------------------------|
D|------------------------------------------------------------------------------------------------|
A|6666666666666666-5555555555555555-3333333333333333-1xx1xx1xx1xx1x1------------------------------|
E|------------------------------------------------------------------------------------------------|

"Dizer, o que eu posso dizer" 
G|------------------------------------------------------------------------------------------------|
D|--------88-6666----------88-6666----------------------------------------------------------------|
A|66666666---------55555555---------3333333333333333-1xx1xx1xx1xx-13-13-13-(treze)----------------|
E|------------------------------------------------------------------------------------------------|

"É que às vezes acho que não sou o melhor pra você"
G|------------------------------------------------------------------------------------------------|
D|------------------------------------------------------------------------------------------------|
A|6666666666666666-5555555555555555-3333333333333333-1xx1xx1xx1xx1x1------------------------------|
E|------------------------------------------------------------------------------------------------|

"Só quero que saiba" 
G|------------------------------------------------------------------------------------------------|
D|------------------------------------------------------------------------------------------------|
A|------------------------------------------------------------------------------------------------|
E|-1-0-1-0-1-0-1-0-1-0-1-0-1-0-1-3--4444444444444444----------------------------------------------|


(Refrão)
G|------------------------------------------------------------------------------------------------|
D|------------------------------------------------------------------------------------------------|
A|-33333333----------66666666-----------33333333----------66666666--------------------------------|
E|----------44444444----------66666666-----------44444444----------66666666-----------------------|


(Igual a Intro)
G|------------------------------------------------------------------------------------------------|
D|------------------------------------------------------------------------------------------------|
A|6666666666666666-5555555555555555-3333333333333333-1xx1xx1xx1xx1x1------------------------------|
E|------------------------------------------------------------------------------------------------|


"Sentir, o que posso sentir"
G|------------------------------------------------------------------------------------------------|
D|--------88-6666----------88-6666----------------------------------------------------------------|
A|66666666---------55555555---------3333333333333333-1xx1xx1xx1xx-13-13-13-(treze)----------------|
E|------------------------------------------------------------------------------------------------|



"É que às vezes acho que não sou o melhor pra você"
G|------------------------------------------------------------------------------------------------|
D|------------------------------------------------------------------------------------------------|
A|6666666666666666-5555555555555555-3333333333333333-1xx1xx1xx1xx1x1------------------------------|
E|------------------------------------------------------------------------------------------------|


"Só quero que saiba" 
G|------------------------------------------------------------------------------------------------|
D|------------------------------------------------------------------------------------------------|
A|------------------------------------------------------------------------------------------------|
E|-1-0-1-0-1-0-1-0-1-0-1-0-1-0-1-3--4444444444444444----------------------------------------------|


"Entre razões e emoções a saída"  
G|------------------------------------------------------------------------------------------------|
D|------------------------------------------------------------------------------------------------|
A|-3-------------6-------------3-------------6----------------------------------------------------|
E|--------4-------------6-------------4-------------6------44444444--4----------------------------|


(Solo)
G|------------------------------------------------------------------------------------------------|
D|------------------------------------------------------------------------------------------------|
A|-33333333----------66666666-----------33333333----------66666666--------------------------------|
E|----------44444444----------66666666-----------44444444----------66666666-----------------------|


(Refrão) (2x)
G|------------------------------------------------------------------------------------------------|
D|------------------------------------------------------------------------------------------------|
A|-33333333----------66666666-----------33333333----------66666666--------------------------------|
E|----------44444444----------66666666-----------44444444----------66666666-----------------------|


"posso esperar"
G|------------------------------------------------------------------------------------------------|
D|------------------------------------------------------------------------------------------------|
A|------------------------------------------------------------------------------------------------|
E|-4444444444444444---4444444444444444---4444444444444444---4444444444444444----------------------|
Composição: Di Ferrero / Gee RochaColaboração e revisão:
  • Arthur Rodella

0 comentários

    mostrar mais comentários

    Conseguiu tocar?

    17tocaram0ainda não

    Grave um vídeo tocando Razões e Emoções e mande pra gente!

    00:00 / 00:00
    outros vídeos desta música
    repetirqualidadeautomática
    Outro vídeos desta música
      00:00 / 00:00
      automática
      OK