Cifra Club

Razões e Emoções

Nx Zero

Tab de baixo: Principal
exibições 98.245
[Introdução]

Parte 1 de 2
G|----------------------------------------------|
D|----------------------------------------------|
A|----------------------------------------------|
E|-15\--0-0-0-0--0-0-0-0--0-0-0-0--0-0-0-0------|

G|----------------------------------------------|
D|----------------------------------------------|
A|-6-6-6-6--6-6-6-6--6-6-6-6--6-6-6-6-----------|
E|----------------------------------------------|

Parte 2 de 2
G|----------------------------------------------|
D|----------------------------------------------|
A|-4-4-4-4--4-4-4-4--4-4-4-4--4-4-4-4-----------|
E|----------------------------------------------|

G|----------------------------------------------|
D|----------------------------------------------|
A|-2-2-2-2--2-2-2-2--2-2-2-2--2-2-2-2/----------|
E|----------------------------------------------|


[Primeira parte]

Dizer, o que eu posso dizer...

Parte 1 de 5
G|----------------------------------------------|
D|------------------5/9-9-9--7-7-7--6-6---------|
A|-7-7-7-7--7-7-7-7-----------------------------|
E|----------------------------------------------|

G|----------------------------------------------|
D|-------------------7/9-9-9--7-7-7--6-6--------|
A|-6-6-6-6--6-6-6-6-----------------------------|
E|----------------------------------------------|

Parte 2 de 5
G|----------------------------------------------|
D|-------------------6/7-7-7--6-6-6-6-6---------|
A|-4-4-4-4--4-4-4-4-----------------------------|
E|----------------------------------------------|

G|-----------------4----------------------------|
D|----------------------------------------------|
A|-2-2-2--2-2-2------2-2--2-2-2-2-2/------------|
E|-----------------------------------7\---------|

Parte 3 de 5
G|----------------------------------------------|
D|----------------------------------------------|
A|----------------------------------------------|
E|-0-0-0-0--0-0-0-0--0-0-0-0--0-0-0-0-----------|

G|----------------------------------------------|
D|----------------------------------------------|
A|-6-6-6-6--6-6-6-6--6-6-6-6--6-6-6-6-----------|
E|----------------------------------------------|

Parte 4 de 5
G|----------------------------------------------|
D|----------------------------------------------|
A|-4-4-4-4--4-4-4-4--4-4-4-4--4-4-4-4-----------|
E|----------------------------------------------|

G|----------------------------------------------|
D|----------------------------------------------|
A|-2-2-2-2--2-2-2-2--2-2-2-2--2-2-2-2-----------|
E|----------------------------------------------|

Parte 5 de 5
G|----------------------------------------------|
D|----------------------------------------------|
A|----------------------------------------------|
E|-2-0-2-0-2-0-2-0--2-0-2-0-2--4--5-5-5-5-------|

G|----------------------------------------------|
D|----------------------------------------------|
A|----------------------------------------------|
E|-5-5-5-5--5-5-5-5--5-5-5-5--------------------|


[Refrão]

Entre razões e emoções...

(2x)
G|----------------------------------------------|
D|----------------------------------------------|
A|-4-4-4-4--4-4-4-4-----------------------------|
E|-------------------5-5-5-5--5-5-5-5-----------|

G|----------------------------------------------|
D|----------------------------------------------|
A|-4/7-7-7-7--7-7-7-7---------------------------|
E|---------------------7-7-7-7--7-7-7-7---------|


[Introdução 2]

Parte 1 de 2
G|----------------------------------------------|
D|----------------------------------------------|
A|----------------------------------------------|
E|-0-0-0-0--0-0-0-0--0-0-0-0--0-0-0-0-----------|

G|----------------------------------------------|
D|----------------------------------------------|
A|-6-6-6-6--6-6-6-6--6-6-6-6--6-6-6-6-----------|
E|----------------------------------------------|

Parte 2 de 2
G|----------------------------------------------|
D|----------------------------------------------|
A|-4-4-4-4--4-4-4-4--4-4-4-4--4-4-4-4-----------|
E|----------------------------------------------|

G|----------------------------------------------|
D|----------------------------------------------|
A|-2-2-2-2--2-2-2-2--2-2-2-2--2-2-2-2/----------|
E|----------------------------------------------|


[Segunda parte]

Sentir, o que posso sentir...

Parte 1 de 5
G|----------------------------------------------|
D|------------------5/9-9-9--7-7-7--6-6---------|
A|-7-7-7-7--7-7-7-7-----------------------------|
E|----------------------------------------------|

G|----------------------------------------------|
D|-------------------7/9-9-9--7-7-7--6-6--------|
A|-6-6-6-6--6-6-6-6-----------------------------|
E|----------------------------------------------|

Parte 2 de 5
G|----------------------------------------------|
D|-------------------6/7-7-7--6-6-6-6-6---------|
A|-4-4-4-4--4-4-4-4-----------------------------|
E|----------------------------------------------|

G|-----------------4----------------------------|
D|----------------------------------------------|
A|-2-2-2--2-2-2------2-2--2-2-2-2-2/------------|
E|-----------------------------------7\---------|

Parte 3 de 5
G|----------------------------------------------|
D|----------------------------------------------|
A|----------------------------------------------|
E|-0-0-0-0--0-0-0-0--0-0-0-0--0-0-0-0-----------|

G|----------------------------------------------|
D|----------------------------------------------|
A|-6-6-6-6--6-6-6-6--6-6-6-6--6-6-6-6-----------|
E|----------------------------------------------|

Parte 4 de 5
G|----------------------------------------------|
D|----------------------------------------------|
A|-4-4-4-4--4-4-4-4--4-4-4-4--4-4-4-4-----------|
E|----------------------------------------------|

G|----------------------------------------------|
D|----------------------------------------------|
A|-2-2-2-2--2-2-2-2--2-2-2-2--2-2-2-2-----------|
E|----------------------------------------------|

Parte 5 de 5
G|----------------------------------------------|
D|----------------------------------------------|
A|----------------------------------------------|
E|-2-0-2-0-2-0-2-0--2-0-2-0-2--4--5-5-5-5-------|

G|----------------------------------------------|
D|----------------------------------------------|
A|----------------------------------------------|
E|-5-5-5-5--5-5-5-5--5--12/---9/----------------|


[Refrão 2]

Entre razões e emoções...

G|----------------------------------------------|
D|----------------------------------------------|
A|-4---2/7---4---2/7----------------------------|
E|---5-----7---5-----7--2-2-2--5-5-5-5-5--------|

G|----------------------------------------------|
D|----------------------------------------------|
A|----------------------------------------------|
E|-5-5-5-5--5-5-5-5---5-5-5-5--5-5-5-5----------|

G|----------------------------------------------|
D|----------------------------------------------|
A|----------------------------------------------|
E|-5-5-5-5--5-5-5-------------------------------|


[Terceira parte - Solo de guitarra]

(2x)
G|----------------------------------------------|
D|----------------------------------------------|
A|-4-4-4-4--4-4-4-4-----------------------------|
E|-------------------5-5-5-5--5-5-5-5-----------|

G|----------------------------------------------|
D|----------------------------------------------|
A|-4/7-7-7-7--7-7-7-7---------------------------|
E|---------------------7-7-7-7--7-7-7-7---------|


[Refrão 3]

Entre razões e emoções...

Parte 1 de 3 (4x)
G|----------------------------------------------|
D|----------------------------------------------|
A|-4-4-4-4--4-4-4-4-----------------------------|
E|-------------------5-5-5-5--5-5-5-5-----------|

G|----------------------------------------------|
D|----------------------------------------------|
A|-4/7-7-7-7--7-7-7-7---------------------------|
E|---------------------7-7-7-7--7-7-7-7---------|

Parte 2 de 3 
G|----------------------------------------------|
D|----------------------------------------------|
A|-----------------------------5/---------------|
E|-5-5-5-5--5-5-5--5-5-5-5--5-------------------|

G|----------------------------------------------|
D|----------------------------------------------|
A|-12-12-12-12--12-12-12--12-12-12-12-12\-------|
E|----------------------------------------------|

Parte 3 de 3
G|----------------------------------------------|
D|----------------------------------------------|
A|-----------------------------5/---------------|
E|-5-5-5-5--5-5-5--5-5-5-5--5-------------------|

G|----------------------------------------------|
D|----------------------------------------------|
A|-12-12-12-12--12-12-12--12-12-12-12-----------|
E|----------------------------------------------|

G|----------------------------------------------|
D|----------------------------------------------|
A|-12-12-12-12----------------------------------|
E|--------------0-------------------------------|
Composição: Di Ferrero / Gee RochaColaboração e revisão:
  • Reginaldo Costa
  • Caroline Leroy
  • Arthur Rodella

0 comentários

    mostrar mais comentários

    Conseguiu tocar?

    18tocaram0ainda não

    Grave um vídeo tocando Razões e Emoções e mande pra gente!

    00:00 / 00:00
    outros vídeos desta música
    repetirqualidadeAutomático
    Outro vídeos desta música
      00:00 / 00:00
      Capítulos
      • Tocando a música
      • Apresentação / Equipamentos
      • Afinação 1/2 tom abaixo
      • TAB - Introdução 1 - Parte 1 de 2
      • TAB - Introdução 1 - Parte 2 de 2
      • TAB - Primeira Parte - Parte 1 de 5
      • TAB - Primeira Parte - Parte 2 de 5
      • TAB - Primeira Parte - Parte 3 de 5
      • TAB - Primeira Parte - Parte 4 de 5
      • TAB - Primeira Parte - Parte 5 de 5
      • TAB - Refrão 1
      • TAB - Introdução 2 - Parte 1 de 2
      • TAB - Introdução 2 - Parte 2 de 2
      • TAB - Segunda Parte - 1 ao 5
      • TAB - Refrão 2
      • TAB - Terceira Parte
      • Refrão 3 - Parte 1 de 3
      • Refrão 3 - Parte 2 de 3
      • Refrão 3 - Parte 3 de 3
      • Encerramento
      OK