Enviar cifraEntrar

Tudo Passa

Nx Zero

Cifra: Principal
exibições 200.530
Tom: D
(intro)  D Em G A


E|-5--5--0----------5--5-0-|-5s2--0--------------|-5s2--0------------|-5s2--0-------------|
B|----------3--0--3--------|----------3--0/3--0--|----------3--0--3--|----------3--0/3--0-|
G|-------------------------|---------------------|-------------------|--------------------|
D|-0--0--0--0--0--0-0--0-1-|-0--0--0--0---0---0--|-0--0--0--0--0--0--|-0--0--0--0---0---0-|
A|-------------------------|---------------------|-------------------|--------------------|
E|-------------------------|---------------------|-------------------|--------------------|


E|-5s2--------------5--0---|-5s2--0--------------|-5s2--0------------|-5s2--0-------------|
B|-------5--3-----3--------|----------3--0/3--0--|----------3--0--3--|----------3--0/3--0-|
G|-------------2-----------|---------------------|-------------------|--------------------|
D|-0--0--0--0--0--0--0--0--|-0--0--0--0---0---0--|-0--0--0--0--0--0--|-0--0--0--0---0---0-|
A|-------------------------|---------------------|-------------------|--------------------|
E|-------------------------|---------------------|-------------------|--------------------|


     D
Na vida tudo passa
 Em
Não importa o que tu faça
 G
O que te fazia rir
  A
Hoje já não tem mais graça
 D
Tudo muda
  Em
Tudo troca de lugar
    G
O filme é o mesmo
       A
Só o elenco que tem que mudar
    D            Em
Que alterar pra poder se encaixar
    G                   A
Se não for pra ser feliz é melhor largar
       D           Em
Então se ligue e busque felicidade
      G                       A
Pra existir história tem que existir verdade
   D                   Em
Numa estrela cadente o sonho se faz presente
  G                     A
No compasso do batuque de um coração doente
D                 Em
A fera tá ferida mas não tá morta
  G                  A
Deus fecha a janela mas deixa aberta a porta

           D    Em
Então se ligue
    G         A
Busque felicidade
    D           Em              G       A
Pra existir história tem que existir verdade
           D Em
Então se ligue
    D           Em              G       A
Pra existir história tem que existir verdade

   ( D Em G A ) (mesma batida)
Porque o sol não se tampa com a peneira
Pra quem já tá molhado um pingo é besteira
Renovo minha força vendo o sol se pôr
Pensamento longe renovo meu amor
Minha voz faz eco tristeza que eu veto
Não importa qual o papo
O papo aqui tem que ser reto
E cada chaga que a gente traz na alma
É a confirmação de que a ferida sara
E se restaura, já foi cicatrizada
Eleve as mãos pros céus
Que a tua alma tá blindada
Pois ninguém vive conto de fadas
Prefiro meu degrau do que sua escada

   D  Em  G  A
Então se ligue
Busque felicidade
Pra existir história tem que existir verdade
Então se ligue
Pra existir história tem que existir verdade

   D  Em  G  A
Que por sinal é pra subir e pra descer
Um degrau de cada vez é assim que tem que ser
Tá entendendo o que eu tô falando?
Caiu a ficha ou ainda tá boiando?
Minhas palavras pairam pelo ar
E o meu show tem que continuar
Por isso eu continuo no rap eu destruo
Como dizia Alí dou ferroadas e flutuo
Que nem no ringue tem que ter molejo
Na minha criação a força vence o medo

 G                   A
  Sem querer controlar o que sinto
 G                 A
  Vivo sem deixar sombras no tempo

   D  Em  G  A
Então se ligue
Busque felicidade
Pra existir história tem que existir verdade
Então se ligue
Pra existir história tem que existir verdade

   D  Em  G  A
Então se ligue
Busque felicidade
Pra existir história tem que existir verdade
Então se ligue
Busque felicidade
Pra existir história tem que existir verdade

                   ( A Em G A )   (baixando o volume)


E|--5--2--------------5--0--|-5--2--0-------------|-5--2--0-----------|-5--2--0-------------|
B|--------5--3-----3--------|----------3--0/3--0--|----------3--0--3--|----------3--0/3--0--|
G|--------------2-----------|---------------------|-------------------|---------------------|
D|--0--0--0--0--0--0--0--0--|-0--0--0--0---0---0--|-0--0--0--0--0--0--|-0--0--0--0---0---0--|
A|--------------------------|---------------------|-------------------|---------------------|
E|--------------------------|---------------------|-------------------|---------------------|

                          (aqui começa a baixar o volume)

E|--5--2--------------5--0--|-5--2--0-------------|
B|--------5--3-----3--------|----------3--0/3--0--|
G|--------------2-----------|---------------------|
D|--0--0--0--0--0--0--0--0--|-0--0--0--0---0---0--|
A|--------------------------|---------------------|
E|--------------------------|---------------------|
  • 1
  • 2
  • 3
  • 4
  • 5
  • 6
  • 7
  • 8
  • 9
  • 10
  • 11
  • 12
    Acordes para:

      0 comentários

        mostrar mais comentários

        Conseguiu tocar?

        14tocaram0ainda não

        Grave um vídeo tocando Tudo Passa e mande pra gente!

        00:00 / 00:00
        outros vídeos desta música
        repetirqualidadeautomática
        • automática
        Outro vídeos desta música
          00:00 / 00:00
          automática
          • automática
          Acordes para:violão e guitarra
          dificuldadeexibiçõescontribuições
          fecharplay/pause subir/descer velocidade
            acordes
            fechar
            OK
            Feedback