Cifra Club

Um Pouco Mais

Nx Zero

Cifra: Principal (violão e guitarra)
tom: E
[Intro] G#  E  B  F#

E|------------------------------------------------------------|
B|----4--------------------------------4----------------------|
G|-----4-------------6-4----------------4------------6-4------|
D|-6-6-----------2-2---------------4-4-----------4-4----------|
A|------------------------------------------------------------|
E|------------------------------------------------------------|

  G#                     E                 
Sempre escondo o meu sorriso 
                  G#
Quando passo por você
                     E    
Nossos olhos se encontram
                  G#
Você finge não me ver

E|----------------------------------|
B|--4--4--5--5--4--4--X--4--X--4----|
G|--4--4--4--4--4--4--X--4--X--4----|
D|----------------------------------|
A|----------------------------------|
E|----------------------------------|

         B          F#m
Talvez esteja tão vazio
 G#     B      F#m      E
Que já não sou mais ninguém
 E   
Então

( G#  E  B  F# )
Desfaz o nó em minha garganta e deixa eu te dizer
O quanto é difícil eu tentar viver 
Enquanto cada dia longe de você
Me mata um pouco mais

( G#  E  B  F# )
 
G#              E                    G#
Continuo sem saber onde foi que te perdi
                        E      E-G#      
Houve um tempo onde pensei que era feliz

E|---------------------------------|
B|--4--4--5--5--4--4--X--4--X--4---|
G|--4--4--4--4--4--4--X--4--X--4---|
D|---------------------------------|
A|---------------------------------|
E|---------------------------------|

E|---------------------------------|
B|--4--4--5--5--4--4--X--4--X--4---|
G|--4--4--4--4--4--4--X--4--X--4---|
D|---------------------------------|
A|---------------------------------|
E|---------------------------------|

            B        F#m     G#
E houve um tempo onde te abracei 
       B            F#m    E
E prometi nunca te abandonar
  E
Então

( G#  E  B  F# )
Desfaz o nó em minha garganta e deixa eu te dizer

O quanto é difícil eu tentar viver 

Enquanto cada dia longe de você

Me mata um pouco mais

( G#  E  B  F# )
Um pouco mais
( G#  E  B  F# )
Um pouco mais
( G#  E  B  F# )

E|-----------------------------------------------------------|
B|-----------------------------------------------------------|
G|--11-11-x-11-xx--6/-8--8-8--xx--6/-8--8-8-xx--6/-8--8-8----|
D|--x--x--x-x--xx--x/-x--x-x--xx--x/-x--x-x-xx--x/-x--x-x----|
A|--9--9--x-9--xx--4/-6--6-6--xx--4/-6--6-6-xx--4/-6--6-6----|
E|-----------------------------------------------------------|

E|-----------------------------------------------------------|
B|-----------------------------------------------------------|
G|--11-11-x-11-xx--6/-8--8-8--xx--6/-8--8-8-xx--6/-8--8-8----|
D|--x--x--x-x--xx--x/-x--x-x--xx--x/-x--x-x-xx--x/-x--x-x----|
A|--9--9--x-9--xx--4/-6--6-6--xx--4/-6--6-6-xx--4/-6--6-6----|
E|-----------------------------------------------------------|

( G#  E  B  F# )
Dias ensinam tudo para nós

Talvez nos façam entender

Que ainda pode ser só eu e você
 E
Então

[Refrão] 

( G#  E  B  F# )
Desfaz o nó em minha garganta e deixa eu te dizer

O quanto é difícil eu tentar viver 

Enquanto cada dia longe de você

(Me mata um pouco mais)
                             G#  B  E
O quanto é difícil eu tentar viver!
00:00 / 00:00
Outros vídeos desta música
Repetir
Outros vídeos desta música
Composição de Di Ferrero / Gee Rocha / Rodrigo Koala
110.705 exibições
    • ½ Tom
    • A
    • Bb
    • B
    • C
    • Db
    • D
    • Eb
    • E
    • F
    • F#
    • G
    • Ab
  • Adicionar à lista

    0 comentários

    Ver todos os comentários

    Conseguiu tocar?

    8 Tocaram 0 Ainda não

    Grave um vídeo tocando Um Pouco Mais e nos envie!

    Entre para oCifra Club PRO

    Tenha acesso a benefícios exclusivos no App e no Site

    • Chega de anúncios

    • Prioridade de compra em lançamentos

    • Mais recursos no app do Afinador

    • Atendimento Prioritário

    • Descontos nos produtos Cifra Club

    • Ajude a produzir mais conteúdo

    00:00 / 00:00

    Cifra Club Pro

    Aproveite o Cifra Club com benefícios exclusivos e sem anúncios
    Cifra Club Pro
    Aproveite o Cifra Club com benefícios exclusivos e sem anúncios
    OK