Cifra Club

Vibe

Nx Zero

Cifra: Principal (violão e guitarra)
tom: F# (forma dos acordes no tom de G) Afinação: Eb Ab Db Gb Bb Eb
INTRO:

[GUITARRA 1]: 4x
   P.M...............................................................
      C                Am               Em
Eb|-------------------------------------------------------------------|
Bb|-------------------------------------------------------------------|
Gb|-------------------------------------------------------------------|
Db|-2-2-2-2-2-2-2-2--2-2-2-2-2-2-2-2--2-2-2-2-2-2-2-2-2-2-2-2-2-2-2-2-|
Ab|-3-3-3-3-3-3-3-3--0-0-0-0-0-0-0-0--2-2-2-2-2-2-2-2-2-2-2-2-2-2-2-2-|
Eb|-------------------------------------------------------------------|

      C                Am               Em              D5
Eb|-------------------------------------------------------------------|
Bb|-------------------------------------------------------------------|
Gb|-------------------------------------------------------------------| 
Db|-2-2-2-2-2-2-2-2--2-2-2-2-2-2-2-2--2-2-2-2-2-2-2-2-7-7-7-7-7-7-7-7-|
Ab|-3-3-3-3-3-3-3-3--0-0-0-0-0-0-0-0--2-2-2-2-2-2-2-2-5-5-5-5-5-5-5-5-|
Eb|-------------------------------------------------------------------|

[GUITARRA 2]:
Eb|-------------------------------------------|
Bb|-------------------------------------------|
Gb|-0h2-0------------0--0h2-0-----------------|
Db|-------0h2-0h2-0h2-2-------0h2-0h2-0-0h2p0-|
Ab|-------------------------------------------|
Eb|-------------------------------------------|

Eb|-------------------------------------|
Bb|-------------------------------------|
Gb|-0h2-0------------0--0h2-0-----------|
Db|-------0h2-0h2-0h2-2-------0h2-0h2p0-|
Ab|-------------------------------------|
Eb|-------------------------------------|

VERSO: (tocar em Palm Mute)
           C   Am
Andei por aí
            Em
Olhando pra baixo
               C   Am
Sem alma e nem cor
              Em
Faltando um pedaço, oh
         C   Am
Ela apareceu
            Em
Mudou meu astral
         C   Am
Dia clareou
             Em   D
E o coração acelerou

REFRÃO:

[GUITARRA 1]:
                C           Am
Porque ela é mó vibe, vibe, vibe
Em          D
Vibe, vibe, vibe
    C           Am    Em      D
Oh, vibe, vibe, vibe, oh, uh, uh
         C  Am Em      D
Ela é mó vibe, oh, uh, uh
         C  Am Em
Ela é mó vibe, oh

[GUITARRA 2]:
      C                Am               Em              D
Eb|---------------------------------------------------------------------|
Bb|---------------------------------------------------------------------|
Gb|-----0-------0--------2-------2-------------------------0-------0----| 3x
Db|---2---2---2---2----2---2---2---2------2-------2------4---4---4---4--|
Ab|-3-------3--------0-------0----------2---2---2---2--5-------5--------|
Eb|-----------------------------------0-------0-------------------------|

      C                Am               Em
Eb|-----------------------------------0--|
Bb|-----------------------------------0--|
Gb|-----0-------0--------2-------2----0--|
Db|---2---2---2---2----2---2---2---2--2--|
Ab|-3-------3--------0-------0--------2--|
Eb|-----------------------------------0--|

INTRO:

[GUITARRA 1]: 2x
   P.M...............................................................
      C                Am               Em
Eb|-------------------------------------------------------------------|
Bb|-------------------------------------------------------------------|
Gb|-------------------------------------------------------------------|
Db|-2-2-2-2-2-2-2-2--2-2-2-2-2-2-2-2--2-2-2-2-2-2-2-2-2-2-2-2-2-2-2-2-|
Ab|-3-3-3-3-3-3-3-3--0-0-0-0-0-0-0-0--2-2-2-2-2-2-2-2-2-2-2-2-2-2-2-2-|
Eb|-------------------------------------------------------------------|

      C                Am               Em              D5
Eb|-------------------------------------------------------------------|
Bb|-------------------------------------------------------------------|
Gb|-------------------------------------------------------------------| 
Db|-2-2-2-2-2-2-2-2--2-2-2-2-2-2-2-2--2-2-2-2-2-2-2-2-7-7-7-7-7-7-7-7-|
Ab|-3-3-3-3-3-3-3-3--0-0-0-0-0-0-0-0--2-2-2-2-2-2-2-2-5-5-5-5-5-5-5-5-|
Eb|-------------------------------------------------------------------|

[GUITARRA 2]:
Eb|-------------------------------------------|
Bb|-------------------------------------------|
Gb|-0h2-0------------0--0h2-0-----------------|
Db|-------0h2-0h2-0h2-2-------0h2-0h2-0-0h2p0-|
Ab|-------------------------------------------|
Eb|-------------------------------------------|

Eb|-------------------------------------|
Bb|-------------------------------------|
Gb|-0h2-0------------0--0h2-0-----------|
Db|-------0h2-0h2-0h2-2-------0h2-0h2p0-|
Ab|-------------------------------------|
Eb|-------------------------------------|

VERSO: (tocar em Palm Mute)
          C   Am
A noite caiu
              Em
Quando ela chegou
           C   Am
Saudade se foi
             Em
E o céu estrelou
            C   Am
Me deixa na paz
   Em
De bem com o mundo
         C        Am
Faz esquecer de tudo
            Em  D
Só quero sentir

REFRÃO:

[GUITARRA 1]:
                C           Am
Porque ela é mó vibe, vibe, vibe
Em          D
Vibe, vibe, vibe
    C           Am    Em      D
Oh, vibe, vibe, vibe, oh, uh, uh
         C  Am Em      D
Ela é mó vibe, oh, uh, uh
         C  Am Em
Ela é mó vibe, oh

[GUITARRA 2]:
      C                Am               Em              D
Eb|---------------------------------------------------------------------|
Bb|---------------------------------------------------------------------|
Gb|-----0-------0--------2-------2-------------------------0-------0----| 3x
Db|---2---2---2---2----2---2---2---2------2-------2------4---4---4---4--|
Ab|-3-------3--------0-------0----------2---2---2---2--5-------5--------|
Eb|-----------------------------------0-------0-------------------------|

      C                Am               Em
Eb|-----------------------------------0--|
Bb|-----------------------------------0--|
Gb|-----0-------0--------2-------2----0--|
Db|---2---2---2---2----2---2---2---2--2--|
Ab|-3-------3--------0-------0--------2--|
Eb|-----------------------------------0--|

SOLO:

Eb|---------------------------------------------------(12)-----------------|
Bb|--------------------------------------------------------(12)------------|
Gb|--------------------7/9-7-4~--4/7-4-2~~--2/4-2---------------(12)-------|
Db|--10/12-10-------------------------------------2~-----------------(12)--|
Ab|-----------7~-----------------------------------------------------------|
Eb|------------------------------------------------------------------------|

Eb|------------------------------------------------------------------------------------------|
Bb|------8---8-10-10b12r10-----8---8-10-10b12r10-----8---8-10-10b12r10-10b12~-12-12r10-8-----|
Gb|--7h9---9---------------7h9---9---------------7h9---9--------------------------------9~~--|
Db|------------------------------------------------------------------------------------------|
Ab|------------------------------------------------------------------------------------------|
Eb|------------------------------------------------------------------------------------------|


Obs.: Se estende por metade do refrão.
         C           Am
Ela é mó vibe, vibe, vibe
Em          D
Vibe, vibe, vibe
         C           Am
Ela é mó vibe, vibe, vibe
Em          D
Vibe, vibe, vibe
         C           Am
Ela é mó vibe, vibe, vibe
Em          D
Vibe, vibe, vibe
    C           Am    Em
Oh, vibe, vibe, vibe, oh
00:00 / 00:00
Outros vídeos desta música
Repetir
Outros vídeos desta música
Compositor não encontrado.
Colaboração e revisão:
  • Hans
  • Silas Borges
7.666 exibições
  • Simplificar cifra
    • ½ Tom
    • A
    • Bb
    • B
    • C
    • Db
    • D
    • Eb
    • E
    • F
    • F#
    • G
    • Ab
  • Adicionar à lista

    0 comentários

    Ver todos os comentários

    Conseguiu tocar?

    2 Tocaram 0 Ainda não

    Grave um vídeo tocando Vibe e nos envie!

    Entre para oCifra Club PRO

    Tenha acesso a benefícios exclusivos no App e no Site

    • Chega de anúncios

    • Prioridade de compra em lançamentos

    • Mais recursos no app do Afinador

    • Atendimento Prioritário

    • Descontos nos produtos Cifra Club

    • Ajude a produzir mais conteúdo

    00:00 / 00:00

    Cifra Club Pro

    Aproveite o Cifra Club com benefícios exclusivos e sem anúncios
    Cifra Club Pro
    Aproveite o Cifra Club com benefícios exclusivos e sem anúncios
    OK