Cifra Club

Aprenda

Venta

O Círculo

Cifra: Principal (violão e guitarra)
tom: G
[Intro] 

E|-----------------------------------------------------|
B|-----------------------------------------------------|
G|-----------------------------------------------------|
D|---------------------1--2-1--------------------------|
A|----------------------------2------------------------|
E|---0-3-3-2-0--3-2-0----------------------------------|

                                           final da 2ª vez                        2x
E|----------------------------------------|--------------------------------|
B|----------------------------------------|--------------------------------|
G|----------------------------------------|--------------------------------|
D|---------------------1-------1-1----4---|---1-------1-1----4--2----------|
A|-------------------------2-2------------|------2-2-----------------------|
E|---0-3-3-2-0--3-2-0---------------------|--------------------------------|

Em                                 D#°
Venta, e o coração a dias me lembra
                           D9          D#°
Vontades que perseguem
Em
Repousam no amanha

Em                                 D#°
Prendo todo ar que cabe em meu peito
               D9   D#°
Solto de vez e penso
Em
No que virar depois

Em
A dias espero aquele momento
D#°
Em paz com você livre no sentimento
D9                 D#°
De fazer da vida um palco, um show
Em
O show

Em
Tornar cada segundo uma eternidade
D#°
Fazendo de um sonho uma realidade
D9                D#°
Que vira, gira mundo
Em
E viram verdades

                   3x                            4ª vez
E|----------------------------------------|--------------------------------------|
B|----------------------------------------|--------------------------------------|
G|----------------------------------------|--------------------------------------|
D|----------------------------------------|--------------------------------------|
A|------------------------------3-2-------|-------------------------------5/7----|
E|---0-3-5-2-0-3-5-3-0----3-0-------------|---0-3-5-2-0-3-5-3-0----3-0-----------|
Colaboração e revisão:
  • Lucas Castro
32 exibições
    • ½ Tom
    • A
    • Bb
    • B
    • C
    • Db
    • D
    • Eb
    • E
    • F
    • F#
    • G
    • Ab
  • Adicionar à lista

    0 comentários

    Ver todos os comentários
    00:00 / 00:00
    outros vídeos desta música
    repetir qualidade Automático
    Outros vídeos desta música
    00:00 / 00:00
    Automático

    Cifra Club Pro

    Aproveite o Cifra Club com benefícios exclusivos e sem anúncios
    Cifra Club Pro
    Aproveite o Cifra Club com benefícios exclusivos e sem anúncios
    OK