Notificações Amigos pendentes

      O Rappa

      Anjos

      16.902 exibições
      Versão Baixo 5 Cordas
      
      Intro 
      G|------------------------------------------------|
      D|------------------------------------------------|
      A|--9~-99-8--6~-66-4--------------------------9~--| 
      E|-------------------6~-66-4-6~-66-4-6~--66-9-----|
      B|------------------------------------------------|
      
      Verso
      G|--------------------------------------|
      D|--------------------------------------|
      A|--------------------------------------|
      E|-2~-22-1---------6~-66-4-6~-66-9------|
      B|---------4~-44-6----------------------| 
      
      Refrão
      G|-------------------------------------------------|
      D|-------------------------------------------------|
      A|-------------------------------------------------|
      E|-2~-22-1---------6~-66-4-6~-66-4-6~--6p9-6p9-4-2~|
      B|---------4~-44-6---------------------------------|
      
      Versão: João Vitor Lisboa
      
      /*-----------------------------------------------------------*/
      
      Versão Baixo 4 Cordas
      
      Intro 
      G|------------------------------------------------|
      D|------------------------------------------------|
      A|--9~-99-8--6~-66-4--------------------------9~--| 
      E|-------------------6~-66-4-6~-66-4-6~--66-9-----|
      
      Verso
      G|----------------------------------------|
      D|----------------------------------------|
      A|---------6~--6-6--3---------------------|
      E|-2~-22-1—---------------6~-66-4-6~-66-9-|
      
      Refrão
      G|------------------------------------------------------|
      D|------------------------------------------------------|
      A|---------6~--6-6--3-----------------------------------|
      E|-2~-22-1—-------------6~-66-4-6~-66-4-6~--6p9-6p9-4-2~|
      
      Versão: Juliano Simch
        Composição: Marcelo Falcão e Tom SaboiaColaboração e revisão:
        • j.simch
        • João Vitor Lisboa

        Comentários 3

        140 .
        140 cancelar

        conseguiu tocar?

        Eric Do Valle18.606 visualizações
          ver covers de outras músicas »
          0:00 / 0:00

          Capítulos

            2 versões de violão dificuldade exibições contribuição e correção
            2 versões de guitarra dificuldade exibições contribuição e correção
            2 versões de cavaco dificuldade exibições contribuição e correção
            2 versões de teclado dificuldade exibições contribuição e correção
            1 versão de baixo exibições contribuição e correção
            play/pausefechar subir/descer velocidade
            6ª corda E5ª corda A4ª corda D3ª corda G2ª corda B1ª corda E
              acordes
              publicidade
              fechar
              ok