Cifra Club

Anjos

O Rappa

Tab de baixo: Principal
exibições 20.285
Versão Baixo 5 Cordas

Intro 
G|------------------------------------------------|
D|------------------------------------------------|
A|--9~-99-8--6~-66-4--------------------------9~--| 
E|-------------------6~-66-4-6~-66-4-6~--66-9-----|
B|------------------------------------------------|

Verso
G|--------------------------------------|
D|--------------------------------------|
A|--------------------------------------|
E|-2~-22-1---------6~-66-4-6~-66-9------|
B|---------4~-44-6----------------------| 

Refrão
G|-------------------------------------------------|
D|-------------------------------------------------|
A|-------------------------------------------------|
E|-2~-22-1---------6~-66-4-6~-66-4-6~--6p9-6p9-4-2~|
B|---------4~-44-6---------------------------------|

Versão: João Vitor Lisboa

/*-----------------------------------------------------------*/

Versão Baixo 4 Cordas

Intro 
G|------------------------------------------------|
D|------------------------------------------------|
A|--9~-99-8--6~-66-4--------------------------9~--| 
E|-------------------6~-66-4-6~-66-4-6~--66-9-----|

Verso
G|----------------------------------------|
D|----------------------------------------|
A|---------6~--6-6--3---------------------|
E|-2~-22-1—---------------6~-66-4-6~-66-9-|

Refrão
G|------------------------------------------------------|
D|------------------------------------------------------|
A|---------6~--6-6--3-----------------------------------|
E|-2~-22-1—-------------6~-66-4-6~-66-4-6~--6p9-6p9-4-2~|

Versão: Juliano Simch
Colaboração e revisão:
  • Juliano Simch
  • João Antonieto

0 comentários

    mostrar mais comentários

    Conseguiu tocar?

    5tocaram0ainda não

    Grave um vídeo tocando Anjos e mande pra gente!

    00:00 / 00:00
    outros vídeos desta música
    repetirqualidadeautomática
    Outro vídeos desta música
      00:00 / 00:00
      automática
      OK