Cifra Club

Aprenda

Hey Joe

O Rappa

Cifra: Principal (violão e guitarra)
tom: G
[Intro] C  G  D  A  E7
        C  G  D  A  E7

[Primeira Parte]

C      G  D
  Hey Joe

Onde é que você vai
 A             E7
Com essa arma aí na mão

C      G
  Hey Joe
D
Esse não é o atalho
  A             E7
Pra sair dessa condição

C       G      D
 Meu irmão, é só desse jeito
            A           E7
Consegui impor minha moral
C     G             D
  Eu sei que sou caçado
         A             E7
E visto sempre como um animal

[Segunda Parte]

C      G
  Hey Joe
D
Assim você não curte o brilho
   A           E7
Intenso da manhã

C      G
  Hey Joe
D
O que o teu filho vai pensar
  A                 E7
Quando a fumaça baixar

C        G
  Meu irmão
D
Aqui estou por causa dele
A           E7
E vou te dizer
C     G  D
  Talvez eu não tenha vida
    A            E7
Mas é assim que vai ser

[Pré-Refrão]

C      G
  Hey Joe
 D                   A                  E7
Muitos castelos já caíram e você ta na mira
C      G
  Hey Joe
 D                   A                  E7
Muitos castelos já caíram e você ta na mira

[Refrão]

    C       G       D       A       E7
E|----------------------------------------------------|
B|----------------------------------------------------|
G|-----------------------------------9-9--------------|
D|-----------------------------------9-9---------5~---|
A|-3---------2-3-4-5---------4-5-6---7-7-----5--------|
E|---0-1-2-3---------2-3-4-5-------0------/7---7------|

    E7
E|----------------------------------------------------|
B|----------------------------------------------------|
G|---9-9----------------------------------------------|
D|---9-9---------5------------------------------------|
A|---7-7-----5-7---7~---------------------------------|
E|-0-----/7-------------------------------------------|

    C       G       D       A       E7
E|----------------------------------------------------|
B|----------------------------------------------------|
G|-----------------------------------9-9--------------|
D|-----------------------------------9-9---------5~---|
A|-3---------2-3-4-5---------4-5-6---7-7-----5--------|
E|---0-1-2-3---------2-3-4-5-------0------/7---7------|

    E7
E|----------------------------------------------------|
B|----------------------------------------------------|
G|---9-9----------------------------------------------|
D|---9-9---------5------------------------------------|
A|---7-7-----5-7---7~---------------------------------|
E|-0-----/7-------------------------------------------|

        C             G
Também morre quem atira
        D             A
Também morre quem atira
        E7
Também morre quem atira

        C             G
Também morre quem atira
        D             A
Também morre quem atira
        E7
Também morre quem atira

[Ponte]

 C                     G
Menos de 5% dos caras do local
         D                   A
São dedicados a alguma atividade marginal
          E7
E impressionam quando aparecem nos jornais

Tapando a cara com trapos

Com uma uzi na mão

     C                  G
Parecendo árabes árabes árabes do caos
       D
Sinto muito cumpadi
          A
Mas é burrice pensar
           E7
Que esses caras

É que são os donos da biografia

Já que a grande maioria

Daria um livro por dia

      C                       G
Sobre arte, honestidade e sacrifício
      D
Sacrifício
A                         E7
Arte, honestidade e sacrifício

[Refrão]

    C       G       D       A       E7
E|----------------------------------------------------|
B|----------------------------------------------------|
G|-----------------------------------9-9--------------|
D|-----------------------------------9-9---------5~---|
A|-3---------2-3-4-5---------4-5-6---7-7-----5--------|
E|---0-1-2-3---------2-3-4-5-------0------/7---7------|

    E7
E|----------------------------------------------------|
B|----------------------------------------------------|
G|---9-9----------------------------------------------|
D|---9-9---------5------------------------------------|
A|---7-7-----5-7---7~---------------------------------|
E|-0-----/7-------------------------------------------|

    C       G       D       A       E7
E|----------------------------------------------------|
B|----------------------------------------------------|
G|-----------------------------------9-9--------------|
D|-----------------------------------9-9---------5~---|
A|-3---------2-3-4-5---------4-5-6---7-7-----5--------|
E|---0-1-2-3---------2-3-4-5-------0------/7---7------|

    E7
E|----------------------------------------------------|
B|----------------------------------------------------|
G|---9-9----------------------------------------------|
D|---9-9---------5------------------------------------|
A|---7-7-----5-7---7~---------------------------------|
E|-0-----/7-------------------------------------------|

        C             G
Também morre quem atira
        D             A
Também morre quem atira
        E7
Também morre quem atira

        C             G
Também morre quem atira
        D             A
Também morre quem atira
        E7
Também morre quem atira
Composição de Billy Roberts / O Rappa
832.171 exibições
    • ½ Tom
    • A
    • Bb
    • B
    • C
    • Db
    • D
    • Eb
    • E
    • F
    • F#
    • G
    • Ab
  • Adicionar à lista

    0 comentários

    Ver todos os comentários

    Conseguiu tocar?

    59 Tocaram 6 Ainda não

    Grave um vídeo tocando Hey Joe e nos envie!

    00:00 / 00:00
    Outros vídeos desta música
    Repetir Qualidade Automático
    Outros vídeos desta música
    00:00 / 00:00
    Automático

    Cifra Club Pro

    Aproveite o Cifra Club com benefícios exclusivos e sem anúncios
    Cifra Club Pro
    Aproveite o Cifra Club com benefícios exclusivos e sem anúncios
    OK